  0
SECTION
  2
HEADER
  9
$EXTMIN
 10
286965
 20
6717215
  9
$EXTMAX
 10
287285
 20
6717535
  0
ENDSEC
  0
SECTION
  2
ENTITIES
  0
POLYLINE
 66
1
  8
contour_intermed
  0
VERTEX
  8
contour_intermed
 10
286980.28
 20
6717219
  0
VERTEX
  8
contour_intermed
 10
286979.168035781
 20
6717219.9968546
  0
VERTEX
  8
contour_intermed
 10
286978.269463218
 20
6717221.05546844
  0
VERTEX
  8
contour_intermed
 10
286977.498345076
 20
6717222.1027445
  0
VERTEX
  8
contour_intermed
 10
286977.157094935
 20
6717222.97033788
  0
VERTEX
  8
contour_intermed
 10
286976.865194559
 20
6717223.92095898
  0
VERTEX
  8
contour_intermed
 10
286976.558793904
 20
6717224.90371147
  0
VERTEX
  8
contour_intermed
 10
286976.370903232
 20
6717226.13652727
  0
VERTEX
  8
contour_intermed
 10
286976.289328371
 20
6717227.69232812
  0
VERTEX
  8
contour_intermed
 10
286976.481387035
 20
6717229.34832158
  0
VERTEX
  8
contour_intermed
 10
286976.827971865
 20
6717231.10648086
  0
VERTEX
  8
contour_intermed
 10
286977.41885142
 20
6717232.55536741
  0
VERTEX
  8
contour_intermed
 10
286978.01458408
 20
6717233.96541592
  0
VERTEX
  8
contour_intermed
 10
286978.531951839
 20
6717235.44804816
  0
VERTEX
  8
contour_intermed
 10
286979.05849229
 20
6717236.92150771
  0
VERTEX
  8
contour_intermed
 10
286979.436949134
 20
6717238.54305086
  0
VERTEX
  8
contour_intermed
 10
286979.876972098
 20
6717240.1030279
  0
VERTEX
  8
contour_intermed
 10
286980.201892898
 20
6717241.7781071
  0
VERTEX
  8
contour_intermed
 10
286980.61727781
 20
6717243.36272219
  0
VERTEX
  8
contour_intermed
 10
286981.068086876
 20
6717244.91191312
  0
VERTEX
  8
contour_intermed
 10
286981.377214593
 20
6717246.60278541
  0
VERTEX
  8
contour_intermed
 10
286981.568340227
 20
6717248.41165977
  0
VERTEX
  8
contour_intermed
 10
286981.527760659
 20
6717250.45596668
  0
VERTEX
  8
contour_intermed
 10
286981.556246479
 20
6717252.45334273
  0
VERTEX
  8
contour_intermed
 10
286981.642497119
 20
6717254.45296832
  0
VERTEX
  8
contour_intermed
 10
286981.611164086
 20
6717256.46571229
  0
VERTEX
  8
contour_intermed
 10
286981.382412075
 20
6717258.48830437
  0
VERTEX
  8
contour_intermed
 10
286981.254460695
 20
6717260.26100294
  0
VERTEX
  8
contour_intermed
 10
286981.019650323
 20
6717261.96590582
  0
VERTEX
  8
contour_intermed
 10
286980.84264837
 20
6717263.59501443
  0
VERTEX
  8
contour_intermed
 10
286981.094843456
 20
6717264.92233262
  0
VERTEX
  8
contour_intermed
 10
286981.559753902
 20
6717266.33083008
  0
VERTEX
  8
contour_intermed
 10
286982.565973174
 20
6717267.38804341
  0
VERTEX
  8
contour_intermed
 10
286983.410196673
 20
6717268.5686959
  0
VERTEX
  8
contour_intermed
 10
286984.350522708
 20
6717269.63642553
  0
VERTEX
  8
contour_intermed
 10
286985.321036338
 20
6717270.69438518
  0
VERTEX
  8
contour_intermed
 10
286985.947916419
 20
6717272.19741177
  0
VERTEX
  8
contour_intermed
 10
286986.350123767
 20
6717273.95064927
  0
VERTEX
  8
contour_intermed
 10
286986.078778184
 20
6717276.2878899
  0
VERTEX
  8
contour_intermed
 10
286985.575444504
 20
6717278.28942803
  0
VERTEX
  8
contour_intermed
 10
286984.743484499
 20
6717279.74959944
  0
VERTEX
  8
contour_intermed
 10
286983.454375678
 20
6717280.93789297
  0
VERTEX
  8
contour_intermed
 10
286982.0076068
 20
6717281.27797418
  0
VERTEX
  8
contour_intermed
 10
286980.581382065
 20
6717280.99457831
  0
VERTEX
  8
contour_intermed
 10
286979.318353074
 20
6717280.66521006
  0
VERTEX
  8
contour_intermed
 10
286978.055621354
 20
6717280.70620367
  0
VERTEX
  8
contour_intermed
 10
286976.76407077
 20
6717281.29613148
  0
VERTEX
  8
contour_intermed
 10
286975.710864402
 20
6717282.26417437
  0
VERTEX
  8
contour_intermed
 10
286975.11124741
 20
6717283.84784059
  0
VERTEX
  8
contour_intermed
 10
286974.788467705
 20
6717285.87747547
  0
VERTEX
  8
contour_intermed
 10
286974.70291924
 20
6717287.34494268
  0
VERTEX
  8
contour_intermed
 10
286974.644336368
 20
6717288.48568858
  0
VERTEX
  8
contour_intermed
 10
286974.319547933
 20
6717289.27612205
  0
VERTEX
  8
contour_intermed
 10
286973.416942212
 20
6717289.9541786
  0
VERTEX
  8
contour_intermed
 10
286971.952552836
 20
6717290.71702477
  0
VERTEX
  8
contour_intermed
 10
286970.818783172
 20
6717291.25081351
  0
VERTEX
  8
contour_intermed
 10
286970.013369936
 20
6717291.81764448
  0
VERTEX
  8
contour_intermed
 10
286969.365707057
 20
6717292.07438334
  0
VERTEX
  8
contour_intermed
 10
286968.647728079
 20
6717292.35497228
  0
VERTEX
  8
contour_intermed
 10
286967.877225564
 20
6717292.72547946
  0
VERTEX
  8
contour_intermed
 10
286967
 20
6717293.12
  0
SEQEND
  0
POLYLINE
 66
1
  8
contour
  0
VERTEX
  8
contour
 10
286967
 20
6717322.22
  0
VERTEX
  8
contour
 10
286971
 20
6717324.05049346
  0
VERTEX
  8
contour
 10
286974.981743679
 20
6717325.78904403
  0
VERTEX
  8
contour
 10
286978.898014008
 20
6717327.63640462
  0
VERTEX
  8
contour
 10
286982.860707283
 20
6717329.1414317
  0
VERTEX
  8
contour
 10
286987.020492891
 20
6717330.35427763
  0
VERTEX
  8
contour
 10
286991.186666966
 20
6717331.18499752
  0
VERTEX
  8
contour
 10
286994.954850737
 20
6717331.82820456
  0
VERTEX
  8
contour
 10
286998.306302561
 20
6717332.04553581
  0
VERTEX
  8
contour
 10
287000.564799759
 20
6717332.36583496
  0
VERTEX
  8
contour
 10
287002.091920154
 20
6717333.12359119
  0
VERTEX
  8
contour
 10
287002.961091626
 20
6717333.97302848
  0
VERTEX
  8
contour
 10
287003.594392766
 20
6717334.89754117
  0
VERTEX
  8
contour
 10
287004.359477714
 20
6717336.38141787
  0
VERTEX
  8
contour
 10
287005.487240117
 20
6717337.96861117
  0
VERTEX
  8
contour
 10
287007.035128403
 20
6717339.93015291
  0
VERTEX
  8
contour
 10
287009.215061605
 20
6717341.83109499
  0
VERTEX
  8
contour
 10
287011.960229014
 20
6717343.10456415
  0
VERTEX
  8
contour
 10
287014.773126754
 20
6717343.54995925
  0
VERTEX
  8
contour
 10
287017.275358719
 20
6717342.6879997
  0
VERTEX
  8
contour
 10
287019.128118677
 20
6717341.80594238
  0
VERTEX
  8
contour
 10
287020.737262524
 20
6717341.30713699
  0
VERTEX
  8
contour
 10
287022.629227558
 20
6717341.22526519
  0
VERTEX
  8
contour
 10
287024.864095343
 20
6717341.46901345
  0
VERTEX
  8
contour
 10
287026.923919203
 20
6717341.22515897
  0
VERTEX
  8
contour
 10
287028.601586064
 20
6717340.1246503
  0
VERTEX
  8
contour
 10
287029.461495086
 20
6717338.00498383
  0
VERTEX
  8
contour
 10
287029.070971024
 20
6717335.22973742
  0
VERTEX
  8
contour
 10
287027.155906927
 20
6717332.86298271
  0
VERTEX
  8
contour
 10
287024.87411002
 20
6717331.26710424
  0
VERTEX
  8
contour
 10
287023.421709841
 20
6717330.14593524
  0
VERTEX
  8
contour
 10
287022.733182589
 20
6717329.00269003
  0
VERTEX
  8
contour
 10
287022.453517456
 20
6717327.41923271
  0
VERTEX
  8
contour
 10
287022.426617877
 20
6717325.65493132
  0
VERTEX
  8
contour
 10
287022.66867076
 20
6717323.73265332
  0
VERTEX
  8
contour
 10
287022.946970316
 20
6717322.12093897
  0
VERTEX
  8
contour
 10
287023.320709202
 20
6717320.17708334
  0
VERTEX
  8
contour
 10
287023.971629613
 20
6717317.77667148
  0
VERTEX
  8
contour
 10
287025.112454191
 20
6717314.82618095
  0
VERTEX
  8
contour
 10
287027.096866165
 20
6717311.45804709
  0
VERTEX
  8
contour
 10
287029.723522087
 20
6717308.41946377
  0
VERTEX
  8
contour
 10
287032.779678088
 20
6717305.89322317
  0
VERTEX
  8
contour
 10
287035.844195126
 20
6717304.77171196
  0
VERTEX
  8
contour
 10
287038.052542077
 20
6717304.77852041
  0
VERTEX
  8
contour
 10
287039.497878524
 20
6717305.5717895
  0
VERTEX
  8
contour
 10
287040.523309904
 20
6717306.60493619
  0
VERTEX
  8
contour
 10
287041.763153084
 20
6717307.23227172
  0
VERTEX
  8
contour
 10
287043.326669005
 20
6717307.35639269
  0
VERTEX
  8
contour
 10
287045.074786746
 20
6717306.75959215
  0
VERTEX
  8
contour
 10
287047.000562975
 20
6717305.45479968
  0
VERTEX
  8
contour
 10
287048.841046216
 20
6717303.60317065
  0
VERTEX
  8
contour
 10
287050.502055999
 20
6717301.913371
  0
VERTEX
  8
contour
 10
287052.058759727
 20
6717300.4126648
  0
VERTEX
  8
contour
 10
287053.575550405
 20
6717299.00754898
  0
VERTEX
  8
contour
 10
287055.043280902
 20
6717297.35887285
  0
VERTEX
  8
contour
 10
287056.516130275
 20
6717295.60921451
  0
VERTEX
  8
contour
 10
287057.756833464
 20
6717293.89843262
  0
VERTEX
  8
contour
 10
287058.654691706
 20
6717292.32231331
  0
VERTEX
  8
contour
 10
287059.447047413
 20
6717291.31179912
  0
VERTEX
  8
contour
 10
287060.157007075
 20
6717290.85837108
  0
VERTEX
  8
contour
 10
287060.781621491
 20
6717290.58204057
  0
VERTEX
  8
contour
 10
287061.105688904
 20
6717290.0797856
  0
VERTEX
  8
contour
 10
287061.333671597
 20
6717288.77301575
  0
VERTEX
  8
contour
 10
287061.481262629
 20
6717287.28125459
  0
VERTEX
  8
contour
 10
287061.776421312
 20
6717285.647578
  0
VERTEX
  8
contour
 10
287062.336547689
 20
6717284.0504813
  0
VERTEX
  8
contour
 10
287062.808127433
 20
6717282.55233955
  0
VERTEX
  8
contour
 10
287062.808286138
 20
6717281.09454495
  0
VERTEX
  8
contour
 10
287062.160137651
 20
6717279.97430638
  0
VERTEX
  8
contour
 10
287061.305198205
 20
6717278.72551047
  0
VERTEX
  8
contour
 10
287060.498876849
 20
6717277.48796927
  0
VERTEX
  8
contour
 10
287059.612611372
 20
6717276.36738863
  0
VERTEX
  8
contour
 10
287058.780176221
 20
6717275.19982378
  0
VERTEX
  8
contour
 10
287058.055584673
 20
6717273.92441532
  0
VERTEX
  8
contour
 10
287057.454892475
 20
6717272.52510752
  0
VERTEX
  8
contour
 10
287056.929983385
 20
6717271.05001662
  0
VERTEX
  8
contour
 10
287056.405103818
 20
6717269.57489618
  0
VERTEX
  8
contour
 10
287055.764084787
 20
6717268.21591521
  0
VERTEX
  8
contour
 10
287054.768147069
 20
6717267.21185293
  0
VERTEX
  8
contour
 10
287053.34254475
 20
6717266.63745525
  0
VERTEX
  8
contour
 10
287051.704010457
 20
6717266.29120314
  0
VERTEX
  8
contour
 10
287049.90231934
 20
6717266.19053565
  0
VERTEX
  8
contour
 10
287048.332831025
 20
6717266.06702526
  0
VERTEX
  8
contour
 10
287046.882570145
 20
6717265.31328076
  0
VERTEX
  8
contour
 10
287045.615054695
 20
6717263.88890757
  0
VERTEX
  8
contour
 10
287044.677052748
 20
6717261.30212885
  0
VERTEX
  8
contour
 10
287044.08837825
 20
6717258.31796412
  0
VERTEX
  8
contour
 10
287044.172732503
 20
6717254.96953842
  0
VERTEX
  8
contour
 10
287044.962793731
 20
6717251.76136828
  0
VERTEX
  8
contour
 10
287046.72298789
 20
6717249.13848803
  0
VERTEX
  8
contour
 10
287049.065390923
 20
6717246.26795597
  0
VERTEX
  8
contour
 10
287050.775718009
 20
6717243.4101978
  0
VERTEX
  8
contour
 10
287051.485192694
 20
6717240.23557079
  0
VERTEX
  8
contour
 10
287050.547622983
 20
6717237.8637467
  0
VERTEX
  8
contour
 10
287047.394670311
 20
6717236.77205649
  0
VERTEX
  8
contour
 10
287042.88361992
 20
6717236.805469
  0
VERTEX
  8
contour
 10
287038.021854094
 20
6717237.2033165
  0
VERTEX
  8
contour
 10
287034.450027864
 20
6717236.85833482
  0
VERTEX
  8
contour
 10
287032.258087365
 20
6717235.77131285
  0
VERTEX
  8
contour
 10
287031.272414131
 20
6717234.3870526
  0
VERTEX
  8
contour
 10
287030.519525071
 20
6717233.57490354
  0
VERTEX
  8
contour
 10
287029.306637957
 20
6717233.62714341
  0
VERTEX
  8
contour
 10
287026.88582787
 20
6717234.53638552
  0
VERTEX
  8
contour
 10
287023.524179675
 20
6717235.79634192
  0
VERTEX
  8
contour
 10
287019.447826227
 20
6717236.83559919
  0
VERTEX
  8
contour
 10
287015.225782963
 20
6717236.46378858
  0
VERTEX
  8
contour
 10
287012.216328589
 20
6717233.98180281
  0
VERTEX
  8
contour
 10
287010.543076298
 20
6717230.01721971
  0
VERTEX
  8
contour
 10
287010.082799012
 20
6717225.97114101
  0
VERTEX
  8
contour
 10
287009.934902378
 20
6717223.13275658
  0
VERTEX
  8
contour
 10
287010.410349221
 20
6717221.29259581
  0
VERTEX
  8
contour
 10
287011.856705142
 20
6717220.6861466
  0
VERTEX
  8
contour
 10
287013.386228965
 20
6717219.92527805
  0
VERTEX
  8
contour
 10
287015.48
 20
6717219
  0
SEQEND
  0
POLYLINE
 66
1
  8
contour
  0
VERTEX
  8
contour
 10
286975.156814194
 20
6717296.46126013
  0
VERTEX
  8
contour
 10
286974.449492716
 20
6717297.15005968
  0
VERTEX
  8
contour
 10
286974.022957817
 20
6717298.0986986
  0
VERTEX
  8
contour
 10
286973.530589096
 20
6717299.42851272
  0
VERTEX
  8
contour
 10
286974.028152748
 20
6717300.55263183
  0
VERTEX
  8
contour
 10
286974.99932144
 20
6717301.17056549
  0
VERTEX
  8
contour
 10
286976.317541704
 20
6717301.39898962
  0
VERTEX
  8
contour
 10
286977.60876263
 20
6717300.89945502
  0
VERTEX
  8
contour
 10
286978.512081276
 20
6717299.83688548
  0
VERTEX
  8
contour
 10
286978.822164464
 20
6717298.65892242
  0
VERTEX
  8
contour
 10
286978.434679679
 20
6717297.7694645
  0
VERTEX
  8
contour
 10
286977.874143806
 20
6717297.12842637
  0
VERTEX
  8
contour
 10
286977.302899263
 20
6717296.40589833
  0
VERTEX
  8
contour
 10
286976.729002068
 20
6717296.28658337
  0
VERTEX
  8
contour
 10
286975.984998187
 20
6717296.18023415
  0
VERTEX
  8
contour
 10
286975.156814194
 20
6717296.46126013
  0
SEQEND
  0
POLYLINE
 66
1
  8
contour_intermed
  0
VERTEX
  8
contour_intermed
 10
286967
 20
6717375.2
  0
VERTEX
  8
contour_intermed
 10
286968.060535883
 20
6717375.16845009
  0
VERTEX
  8
contour_intermed
 10
286969.012058445
 20
6717374.99595705
  0
VERTEX
  8
contour_intermed
 10
286969.931693691
 20
6717374.70956758
  0
VERTEX
  8
contour_intermed
 10
286971.192915957
 20
6717374.26216721
  0
VERTEX
  8
contour_intermed
 10
286972.995699956
 20
6717373.80770173
  0
VERTEX
  8
contour_intermed
 10
286975.024897127
 20
6717373.45556869
  0
VERTEX
  8
contour_intermed
 10
286976.901450899
 20
6717373.33169204
  0
VERTEX
  8
contour_intermed
 10
286978.647102357
 20
6717373.05807983
  0
VERTEX
  8
contour_intermed
 10
286980.0892449
 20
6717372.91270646
  0
VERTEX
  8
contour_intermed
 10
286981.326544612
 20
6717372.94134553
  0
VERTEX
  8
contour_intermed
 10
286982.545737983
 20
6717373.10622318
  0
VERTEX
  8
contour_intermed
 10
286983.887764757
 20
6717373.05301129
  0
VERTEX
  8
contour_intermed
 10
286985.404735218
 20
6717373.00069909
  0
VERTEX
  8
contour_intermed
 10
286987.015845104
 20
6717372.89382991
  0
VERTEX
  8
contour_intermed
 10
286988.908791163
 20
6717372.64401667
  0
VERTEX
  8
contour_intermed
 10
286990.999099654
 20
6717372.16943409
  0
VERTEX
  8
contour_intermed
 10
286993.10078256
 20
6717371.74042126
  0
VERTEX
  8
contour_intermed
 10
286995.043056887
 20
6717371.47659689
  0
VERTEX
  8
contour_intermed
 10
286996.665110267
 20
6717371.03586896
  0
VERTEX
  8
contour_intermed
 10
286998.379661738
 20
6717370.70607523
  0
VERTEX
  8
contour_intermed
 10
287000.349945959
 20
6717370.81039824
  0
VERTEX
  8
contour_intermed
 10
287002.528896597
 20
6717371.51332224
  0
VERTEX
  8
contour_intermed
 10
287005.004862745
 20
6717372.49844682
  0
VERTEX
  8
contour_intermed
 10
287007.746210157
 20
6717373.66983533
  0
VERTEX
  8
contour_intermed
 10
287010.02275567
 20
6717374.81705278
  0
VERTEX
  8
contour_intermed
 10
287011.504863742
 20
6717375.32732671
  0
VERTEX
  8
contour_intermed
 10
287012.542090425
 20
6717375.07218848
  0
VERTEX
  8
contour_intermed
 10
287013.835349264
 20
6717373.86564257
  0
VERTEX
  8
contour_intermed
 10
287015.355121343
 20
6717372.14243751
  0
VERTEX
  8
contour_intermed
 10
287016.808300938
 20
6717369.96721281
  0
VERTEX
  8
contour_intermed
 10
287018.458598002
 20
6717367.66774472
  0
VERTEX
  8
contour_intermed
 10
287019.979586341
 20
6717365.7968749
  0
VERTEX
  8
contour_intermed
 10
287021.443409551
 20
6717364.03320521
  0
VERTEX
  8
contour_intermed
 10
287023.026312976
 20
6717362.79572472
  0
VERTEX
  8
contour_intermed
 10
287024.90353854
 20
6717361.91775761
  0
VERTEX
  8
contour_intermed
 10
287026.969884553
 20
6717361.45777836
  0
VERTEX
  8
contour_intermed
 10
287028.9961966
 20
6717361.4150836
  0
VERTEX
  8
contour_intermed
 10
287031
 20
6717361.38448578
  0
VERTEX
  8
contour_intermed
 10
287033
 20
6717361.24731306
  0
VERTEX
  8
contour_intermed
 10
287035
 20
6717360.8260422
  0
VERTEX
  8
contour_intermed
 10
287037
 20
6717360.01018305
  0
VERTEX
  8
contour_intermed
 10
287039
 20
6717359.00662836
  0
VERTEX
  8
contour_intermed
 10
287041.006922188
 20
6717357.93573926
  0
VERTEX
  8
contour_intermed
 10
287043.048572537
 20
6717357.06862998
  0
VERTEX
  8
contour_intermed
 10
287045.170165491
 20
6717356.28110967
  0
VERTEX
  8
contour_intermed
 10
287047.026491677
 20
6717355.63908286
  0
VERTEX
  8
contour_intermed
 10
287048.790712212
 20
6717354.66071961
  0
VERTEX
  8
contour_intermed
 10
287050.38683965
 20
6717353.44074786
  0
VERTEX
  8
contour_intermed
 10
287051.955650989
 20
6717351.72577198
  0
VERTEX
  8
contour_intermed
 10
287053.497911253
 20
6717349.73746956
  0
VERTEX
  8
contour_intermed
 10
287055.113635813
 20
6717347.53105505
  0
VERTEX
  8
contour_intermed
 10
287056.608488196
 20
6717345.43078787
  0
VERTEX
  8
contour_intermed
 10
287057.32221469
 20
6717343.98822021
  0
VERTEX
  8
contour_intermed
 10
287057.235306242
 20
6717342.76224864
  0
VERTEX
  8
contour_intermed
 10
287056.311334498
 20
6717341.85300167
  0
VERTEX
  8
contour_intermed
 10
287055.057853667
 20
6717340.97658858
  0
VERTEX
  8
contour_intermed
 10
287053.71521845
 20
6717340.2715516
  0
VERTEX
  8
contour_intermed
 10
287052.709598476
 20
6717339.27040153
  0
VERTEX
  8
contour_intermed
 10
287051.935805039
 20
6717338.04419496
  0
VERTEX
  8
contour_intermed
 10
287051.343027751
 20
6717336.63697225
  0
VERTEX
  8
contour_intermed
 10
287050.939132517
 20
6717335.03736835
  0
VERTEX
  8
contour_intermed
 10
287050.587053556
 20
6717333.36463169
  0
VERTEX
  8
contour_intermed
 10
287050.293649118
 20
6717331.57431026
  0
VERTEX
  8
contour_intermed
 10
287050.132555399
 20
6717329.74415682
  0
VERTEX
  8
contour_intermed
 10
287050.266096648
 20
6717327.81027086
  0
VERTEX
  8
contour_intermed
 10
287050.629540842
 20
6717325.74512161
  0
VERTEX
  8
contour_intermed
 10
287050.865690981
 20
6717323.85624004
  0
VERTEX
  8
contour_intermed
 10
287051.042355406
 20
6717322.20085182
  0
VERTEX
  8
contour_intermed
 10
287051.325496737
 20
6717320.66121766
  0
VERTEX
  8
contour_intermed
 10
287051.467174919
 20
6717319.53888306
  0
VERTEX
  8
contour_intermed
 10
287051.779082719
 20
6717318.48408482
  0
VERTEX
  8
contour_intermed
 10
287052.223935082
 20
6717317.57574558
  0
VERTEX
  8
contour_intermed
 10
287052.752920576
 20
6717316.39371651
  0
VERTEX
  8
contour_intermed
 10
287053.244570136
 20
6717314.6726732
  0
VERTEX
  8
contour_intermed
 10
287053.589936687
 20
6717312.6316457
  0
VERTEX
  8
contour_intermed
 10
287054.13666345
 20
6717310.09934489
  0
VERTEX
  8
contour_intermed
 10
287054.854039051
 20
6717307.78380558
  0
VERTEX
  8
contour_intermed
 10
287055.747075111
 20
6717305.81333745
  0
VERTEX
  8
contour_intermed
 10
287056.712260694
 20
6717304.017467
  0
VERTEX
  8
contour_intermed
 10
287057.734467318
 20
6717302.54569269
  0
VERTEX
  8
contour_intermed
 10
287059.033778436
 20
6717301.18377889
  0
VERTEX
  8
contour_intermed
 10
287060.831715426
 20
6717299.80262586
  0
VERTEX
  8
contour_intermed
 10
287062.981537922
 20
6717298.13281463
  0
VERTEX
  8
contour_intermed
 10
287065.13141558
 20
6717296.39650872
  0
VERTEX
  8
contour_intermed
 10
287067.138977443
 20
6717294.99964028
  0
VERTEX
  8
contour_intermed
 10
287069.130865125
 20
6717293.43350955
  0
VERTEX
  8
contour_intermed
 10
287070.915985198
 20
6717291.5987326
  0
VERTEX
  8
contour_intermed
 10
287072.092759886
 20
6717289.82915304
  0
VERTEX
  8
contour_intermed
 10
287072.788692521
 20
6717288.38373324
  0
VERTEX
  8
contour_intermed
 10
287072.635235881
 20
6717287.45795288
  0
VERTEX
  8
contour_intermed
 10
287071.847818836
 20
6717286.91771761
  0
VERTEX
  8
contour_intermed
 10
287070.484595175
 20
6717286.86296999
  0
VERTEX
  8
contour_intermed
 10
287068.722688637
 20
6717287.11045708
  0
VERTEX
  8
contour_intermed
 10
287067.115349885
 20
6717287.318814
  0
VERTEX
  8
contour_intermed
 10
287065.817734156
 20
6717287.07490143
  0
VERTEX
  8
contour_intermed
 10
287065.258621183
 20
6717286.66925072
  0
VERTEX
  8
contour_intermed
 10
287065.63440095
 20
6717285.76079558
  0
VERTEX
  8
contour_intermed
 10
287066.91317082
 20
6717284.16597818
  0
VERTEX
  8
contour_intermed
 10
287068.993020862
 20
6717282.17783222
  0
VERTEX
  8
contour_intermed
 10
287071.235194096
 20
6717280.07611033
  0
VERTEX
  8
contour_intermed
 10
287073.176418775
 20
6717278.16410107
  0
VERTEX
  8
contour_intermed
 10
287074.411371596
 20
6717276.3376924
  0
VERTEX
  8
contour_intermed
 10
287075.006160915
 20
6717274.60686045
  0
VERTEX
  8
contour_intermed
 10
287074.95629151
 20
6717273.09861604
  0
VERTEX
  8
contour_intermed
 10
287074.344506099
 20
6717271.72597985
  0
VERTEX
  8
contour_intermed
 10
287073.86124487
 20
6717269.99963064
  0
VERTEX
  8
contour_intermed
 10
287073.543196766
 20
6717268.26523052
  0
VERTEX
  8
contour_intermed
 10
287073.798212034
 20
6717266.0914173
  0
VERTEX
  8
contour_intermed
 10
287074.458701618
 20
6717263.93192505
  0
VERTEX
  8
contour_intermed
 10
287075.395645885
 20
6717261.9231677
  0
VERTEX
  8
contour_intermed
 10
287076.840096423
 20
6717259.71819162
  0
VERTEX
  8
contour_intermed
 10
287078.531783654
 20
6717257.76971605
  0
VERTEX
  8
contour_intermed
 10
287080.226005683
 20
6717255.74115291
  0
VERTEX
  8
contour_intermed
 10
287081.512721023
 20
6717253.99943428
  0
VERTEX
  8
contour_intermed
 10
287082.322629538
 20
6717252.41595923
  0
VERTEX
  8
contour_intermed
 10
287082.753839343
 20
6717250.84144092
  0
VERTEX
  8
contour_intermed
 10
287082.518334269
 20
6717249.59183314
  0
VERTEX
  8
contour_intermed
 10
287081.786246744
 20
6717248.30876026
  0
VERTEX
  8
contour_intermed
 10
287081.140109719
 20
6717246.83955982
  0
VERTEX
  8
contour_intermed
 10
287080.490306963
 20
6717245.36816462
  0
VERTEX
  8
contour_intermed
 10
287079.959260928
 20
6717243.84074742
  0
VERTEX
  8
contour_intermed
 10
287079.586670459
 20
6717242.33730469
  0
VERTEX
  8
contour_intermed
 10
287079.39356303
 20
6717241.05840329
  0
VERTEX
  8
contour_intermed
 10
287079.6122662
 20
6717239.64259538
  0
VERTEX
  8
contour_intermed
 10
287080.023277063
 20
6717238.23766767
  0
VERTEX
  8
contour_intermed
 10
287080.809171323
 20
6717236.33100192
  0
VERTEX
  8
contour_intermed
 10
287081.261076022
 20
6717234.49760628
  0
VERTEX
  8
contour_intermed
 10
287081.718364633
 20
6717232.39449975
  0
VERTEX
  8
contour_intermed
 10
287082.477466121
 20
6717230.06738443
  0
VERTEX
  8
contour_intermed
 10
287083.453837091
 20
6717228.0597679
  0
VERTEX
  8
contour_intermed
 10
287084.539679581
 20
6717226.31288976
  0
VERTEX
  8
contour_intermed
 10
287085.215754213
 20
6717225.18856392
  0
VERTEX
  8
contour_intermed
 10
287085.607346493
 20
6717224.07847001
  0
VERTEX
  8
contour_intermed
 10
287085.759772097
 20
6717223.04618066
  0
VERTEX
  8
contour_intermed
 10
287085.898647015
 20
6717221.97487164
  0
VERTEX
  8
contour_intermed
 10
287086.302596947
 20
6717220.87884642
  0
VERTEX
  8
contour_intermed
 10
287086.815022563
 20
6717219.87255042
  0
VERTEX
  8
contour_intermed
 10
287087.44
 20
6717219
  0
SEQEND
  0
POLYLINE
 66
1
  8
contour_index
  0
VERTEX
  8
contour_index
 10
286967
 20
6717386.08
  0
VERTEX
  8
contour_index
 10
286969.520456146
 20
6717386.54288748
  0
VERTEX
  8
contour_index
 10
286971.583359956
 20
6717386.92269665
  0
VERTEX
  8
contour_index
 10
286973.41360972
 20
6717387.19141611
  0
VERTEX
  8
contour_index
 10
286974.527324557
 20
6717387.25168877
  0
VERTEX
  8
contour_index
 10
286975.887212245
 20
6717387.31008443
  0
VERTEX
  8
contour_index
 10
286977.392677841
 20
6717387.45453734
  0
VERTEX
  8
contour_index
 10
286979.003885384
 20
6717387.66918607
  0
VERTEX
  8
contour_index
 10
286980.908799024
 20
6717387.88434949
  0
VERTEX
  8
contour_index
 10
286982.972585591
 20
6717387.78650742
  0
VERTEX
  8
contour_index
 10
286984.996653008
 20
6717387.56215842
  0
VERTEX
  8
contour_index
 10
286987
 20
6717387.14509859
  0
VERTEX
  8
contour_index
 10
286989.004031604
 20
6717386.58407213
  0
VERTEX
  8
contour_index
 10
286991.031465966
 20
6717386.184687
  0
VERTEX
  8
contour_index
 10
286993.12108227
 20
6717385.64180098
  0
VERTEX
  8
contour_index
 10
286995.09134172
 20
6717385.35784973
  0
VERTEX
  8
contour_index
 10
286996.879122956
 20
6717385.20079581
  0
VERTEX
  8
contour_index
 10
286998.51475899
 20
6717385.04859175
  0
VERTEX
  8
contour_index
 10
286999.978241026
 20
6717384.98878977
  0
VERTEX
  8
contour_index
 10
287001.429810543
 20
6717385.16452394
  0
VERTEX
  8
contour_index
 10
287003.016316268
 20
6717385.49691002
  0
VERTEX
  8
contour_index
 10
287004.906168782
 20
6717385.73383678
  0
VERTEX
  8
contour_index
 10
287006.971235072
 20
6717385.96067248
  0
VERTEX
  8
contour_index
 10
287008.996424804
 20
6717386.08255448
  0
VERTEX
  8
contour_index
 10
287011
 20
6717385.83141837
  0
VERTEX
  8
contour_index
 10
287013
 20
6717385.18796226
  0
VERTEX
  8
contour_index
 10
287015
 20
6717384.21351941
  0
VERTEX
  8
contour_index
 10
287017
 20
6717382.99112886
  0
VERTEX
  8
contour_index
 10
287019
 20
6717381.57488974
  0
VERTEX
  8
contour_index
 10
287021
 20
6717380.3109795
  0
VERTEX
  8
contour_index
 10
287023
 20
6717379.20684667
  0
VERTEX
  8
contour_index
 10
287025
 20
6717378.19364215
  0
VERTEX
  8
contour_index
 10
287027.0019017
 20
6717377.07043734
  0
VERTEX
  8
contour_index
 10
287029.018861124
 20
6717375.99288749
  0
VERTEX
  8
contour_index
 10
287031.084915686
 20
6717374.86195183
  0
VERTEX
  8
contour_index
 10
287033.139125963
 20
6717373.89780648
  0
VERTEX
  8
contour_index
 10
287034.950080912
 20
6717373.32614352
  0
VERTEX
  8
contour_index
 10
287036.660217052
 20
6717373.0374803
  0
VERTEX
  8
contour_index
 10
287038.219117092
 20
6717373.3239704
  0
VERTEX
  8
contour_index
 10
287039.72998324
 20
6717373.39711094
  0
VERTEX
  8
contour_index
 10
287041.115516585
 20
6717373.47121426
  0
VERTEX
  8
contour_index
 10
287042.699145417
 20
6717372.96390502
  0
VERTEX
  8
contour_index
 10
287044.237718988
 20
6717371.97053003
  0
VERTEX
  8
contour_index
 10
287045.478819567
 20
6717370.71861068
  0
VERTEX
  8
contour_index
 10
287046.66802754
 20
6717369.31436577
  0
VERTEX
  8
contour_index
 10
287047.973780992
 20
6717368.02011444
  0
VERTEX
  8
contour_index
 10
287049.390826919
 20
6717366.72921889
  0
VERTEX
  8
contour_index
 10
287050.833033323
 20
6717365.24743987
  0
VERTEX
  8
contour_index
 10
287052.460488907
 20
6717363.56365101
  0
VERTEX
  8
contour_index
 10
287053.881752687
 20
6717362.00842299
  0
VERTEX
  8
contour_index
 10
287055.21219881
 20
6717360.01883209
  0
VERTEX
  8
contour_index
 10
287056.308834897
 20
6717358.12143394
  0
VERTEX
  8
contour_index
 10
287057.425812797
 20
6717355.91796124
  0
VERTEX
  8
contour_index
 10
287058.246974135
 20
6717353.90835891
  0
VERTEX
  8
contour_index
 10
287058.982445495
 20
6717352.05566028
  0
VERTEX
  8
contour_index
 10
287060.037979618
 20
6717350.09777031
  0
VERTEX
  8
contour_index
 10
287061.331733206
 20
6717348.54178516
  0
VERTEX
  8
contour_index
 10
287063.026566537
 20
6717347.12957912
  0
VERTEX
  8
contour_index
 10
287065.053280533
 20
6717346.01217687
  0
VERTEX
  8
contour_index
 10
287067.269350688
 20
6717344.99444855
  0
VERTEX
  8
contour_index
 10
287069.323505518
 20
6717343.88770545
  0
VERTEX
  8
contour_index
 10
287070.860524975
 20
6717342.81716928
  0
VERTEX
  8
contour_index
 10
287071.621965295
 20
6717341.73882842
  0
VERTEX
  8
contour_index
 10
287071.495853986
 20
6717340.62861265
  0
VERTEX
  8
contour_index
 10
287070.523389063
 20
6717339.67348061
  0
VERTEX
  8
contour_index
 10
287069.082833325
 20
6717338.91967906
  0
VERTEX
  8
contour_index
 10
287067.565653052
 20
6717338.28461083
  0
VERTEX
  8
contour_index
 10
287066.242472674
 20
6717337.66666457
  0
VERTEX
  8
contour_index
 10
287064.911189856
 20
6717337.21957613
  0
VERTEX
  8
contour_index
 10
287063.464651262
 20
6717337.05658196
  0
VERTEX
  8
contour_index
 10
287061.989480273
 20
6717337.08349245
  0
VERTEX
  8
contour_index
 10
287060.251756399
 20
6717337.34770635
  0
VERTEX
  8
contour_index
 10
287058.608916431
 20
6717337.33179673
  0
VERTEX
  8
contour_index
 10
287057.32597891
 20
6717336.56919352
  0
VERTEX
  8
contour_index
 10
287056.570348619
 20
6717335.44180774
  0
VERTEX
  8
contour_index
 10
287056.351215759
 20
6717333.90671683
  0
VERTEX
  8
contour_index
 10
287056.447625849
 20
6717332.28479952
  0
VERTEX
  8
contour_index
 10
287056.713442559
 20
6717330.60994138
  0
VERTEX
  8
contour_index
 10
287056.791515443
 20
6717329.02221766
  0
VERTEX
  8
contour_index
 10
287056.499911143
 20
6717327.60637545
  0
VERTEX
  8
contour_index
 10
287056.258840316
 20
6717325.71933405
  0
VERTEX
  8
contour_index
 10
287056.218539242
 20
6717323.57859091
  0
VERTEX
  8
contour_index
 10
287056.206904224
 20
6717321.66468665
  0
VERTEX
  8
contour_index
 10
287056.54817599
 20
6717319.50900758
  0
VERTEX
  8
contour_index
 10
287056.905226737
 20
6717317.78698313
  0
VERTEX
  8
contour_index
 10
287057.650126092
 20
6717315.90576673
  0
VERTEX
  8
contour_index
 10
287058.419425403
 20
6717314.05731812
  0
VERTEX
  8
contour_index
 10
287059.241296601
 20
6717312.14225379
  0
VERTEX
  8
contour_index
 10
287059.850774089
 20
6717310.02238896
  0
VERTEX
  8
contour_index
 10
287060.196861103
 20
6717308.0621506
  0
VERTEX
  8
contour_index
 10
287060.849729924
 20
6717305.95395779
  0
VERTEX
  8
contour_index
 10
287061.871045193
 20
6717304.0571097
  0
VERTEX
  8
contour_index
 10
287063.23900886
 20
6717302.26858167
  0
VERTEX
  8
contour_index
 10
287064.724473906
 20
6717300.55463046
  0
VERTEX
  8
contour_index
 10
287066.311191014
 20
6717299.13378481
  0
VERTEX
  8
contour_index
 10
287067.797779742
 20
6717298.10445155
  0
VERTEX
  8
contour_index
 10
287069.291825532
 20
6717297.20933416
  0
VERTEX
  8
contour_index
 10
287070.927106574
 20
6717296.67296921
  0
VERTEX
  8
contour_index
 10
287072.941949489
 20
6717296.0199142
  0
VERTEX
  8
contour_index
 10
287075.052505668
 20
6717295.74796308
  0
VERTEX
  8
contour_index
 10
287077.191968232
 20
6717294.99219982
  0
VERTEX
  8
contour_index
 10
287079.103284623
 20
6717294.12076328
  0
VERTEX
  8
contour_index
 10
287080.860032194
 20
6717292.93564917
  0
VERTEX
  8
contour_index
 10
287082.349539826
 20
6717291.51018346
  0
VERTEX
  8
contour_index
 10
287083.700881534
 20
6717289.80764533
  0
VERTEX
  8
contour_index
 10
287084.466929581
 20
6717287.91648261
  0
VERTEX
  8
contour_index
 10
287084.899252078
 20
6717286.36033692
  0
VERTEX
  8
contour_index
 10
287084.747178415
 20
6717285.20276615
  0
VERTEX
  8
contour_index
 10
287083.919522757
 20
6717284.7060009
  0
VERTEX
  8
contour_index
 10
287082.325210892
 20
6717284.68255901
  0
VERTEX
  8
contour_index
 10
287080.548639077
 20
6717284.8612826
  0
VERTEX
  8
contour_index
 10
287079.521723184
 20
6717284.36354398
  0
VERTEX
  8
contour_index
 10
287079.131308044
 20
6717283.51938076
  0
VERTEX
  8
contour_index
 10
287079.676414791
 20
6717282.26288452
  0
VERTEX
  8
contour_index
 10
287080.86237562
 20
6717280.89632644
  0
VERTEX
  8
contour_index
 10
287082.608972161
 20
6717279.35303872
  0
VERTEX
  8
contour_index
 10
287084.189134802
 20
6717277.56012394
  0
VERTEX
  8
contour_index
 10
287085.247683997
 20
6717275.77131106
  0
VERTEX
  8
contour_index
 10
287085.630245157
 20
6717274.00146634
  0
VERTEX
  8
contour_index
 10
287085.466777253
 20
6717272.46052539
  0
VERTEX
  8
contour_index
 10
287084.728070041
 20
6717271.29491525
  0
VERTEX
  8
contour_index
 10
287083.78876291
 20
6717270.07667705
  0
VERTEX
  8
contour_index
 10
287082.897702554
 20
6717269.11396407
  0
VERTEX
  8
contour_index
 10
287082.421329709
 20
6717267.83653767
  0
VERTEX
  8
contour_index
 10
287082.462931065
 20
6717266.15308991
  0
VERTEX
  8
contour_index
 10
287082.795688259
 20
6717264.32293471
  0
VERTEX
  8
contour_index
 10
287083.331238316
 20
6717262.32917862
  0
VERTEX
  8
contour_index
 10
287084.011273118
 20
6717260.44125192
  0
VERTEX
  8
contour_index
 10
287085.191149762
 20
6717258.14743059
  0
VERTEX
  8
contour_index
 10
287086.882587406
 20
6717256.19139957
  0
VERTEX
  8
contour_index
 10
287088.92959435
 20
6717254.55422364
  0
VERTEX
  8
contour_index
 10
287091.106453418
 20
6717253.40320639
  0
VERTEX
  8
contour_index
 10
287093.325858167
 20
6717252.50680596
  0
VERTEX
  8
contour_index
 10
287095.348206415
 20
6717251.60347232
  0
VERTEX
  8
contour_index
 10
287096.931220706
 20
6717250.77426104
  0
VERTEX
  8
contour_index
 10
287097.822965023
 20
6717249.58645011
  0
VERTEX
  8
contour_index
 10
287097.701273017
 20
6717248.48554961
  0
VERTEX
  8
contour_index
 10
287096.705066454
 20
6717247.49373995
  0
VERTEX
  8
contour_index
 10
287095.224170922
 20
6717246.81094845
  0
VERTEX
  8
contour_index
 10
287093.905947448
 20
6717246.07998585
  0
VERTEX
  8
contour_index
 10
287092.932424957
 20
6717245.04757504
  0
VERTEX
  8
contour_index
 10
287092.187212776
 20
6717243.79278722
  0
VERTEX
  8
contour_index
 10
287091.645838183
 20
6717242.33416182
  0
VERTEX
  8
contour_index
 10
287091.067778696
 20
6717240.90948286
  0
VERTEX
  8
contour_index
 10
287090.387799478
 20
6717239.55849866
  0
VERTEX
  8
contour_index
 10
287089.665287449
 20
6717238.13074655
  0
VERTEX
  8
contour_index
 10
287089.297684294
 20
6717236.20306652
  0
VERTEX
  8
contour_index
 10
287089.512465084
 20
6717234.07454499
  0
VERTEX
  8
contour_index
 10
287090.235418191
 20
6717232.20102704
  0
VERTEX
  8
contour_index
 10
287091.504253358
 20
6717230.72241911
  0
VERTEX
  8
contour_index
 10
287093.175136907
 20
6717229.68046539
  0
VERTEX
  8
contour_index
 10
287094.986619906
 20
6717228.85080538
  0
VERTEX
  8
contour_index
 10
287096.558860441
 20
6717227.97500604
  0
VERTEX
  8
contour_index
 10
287097.465984557
 20
6717226.66593312
  0
VERTEX
  8
contour_index
 10
287097.796028424
 20
6717225.21518455
  0
VERTEX
  8
contour_index
 10
287097.774813124
 20
6717224.02802515
  0
VERTEX
  8
contour_index
 10
287097.772880416
 20
6717222.99434037
  0
VERTEX
  8
contour_index
 10
287097.997800706
 20
6717221.98467075
  0
VERTEX
  8
contour_index
 10
287098.447807934
 20
6717220.94442808
  0
VERTEX
  8
contour_index
 10
287098.917785117
 20
6717219.92917589
  0
VERTEX
  8
contour_index
 10
287099.4
 20
6717219
  0
SEQEND
  0
POLYLINE
 66
1
  8
contour_intermed
  0
VERTEX
  8
contour_intermed
 10
287111.28
 20
6717219
  0
VERTEX
  8
contour_intermed
 10
287111.276560911
 20
6717220.20273816
  0
VERTEX
  8
contour_intermed
 10
287111.275633969
 20
6717221.29883926
  0
VERTEX
  8
contour_intermed
 10
287111.260229374
 20
6717222.36677588
  0
VERTEX
  8
contour_intermed
 10
287111.150689254
 20
6717223.03819255
  0
VERTEX
  8
contour_intermed
 10
287110.991491772
 20
6717223.90482525
  0
VERTEX
  8
contour_intermed
 10
287110.78202193
 20
6717224.75966751
  0
VERTEX
  8
contour_intermed
 10
287110.55095921
 20
6717226.01141999
  0
VERTEX
  8
contour_intermed
 10
287110.573836815
 20
6717227.43375361
  0
VERTEX
  8
contour_intermed
 10
287110.724386824
 20
6717229.14333143
  0
VERTEX
  8
contour_intermed
 10
287111.041913822
 20
6717231.05271453
  0
VERTEX
  8
contour_intermed
 10
287111.350285523
 20
6717232.65842541
  0
VERTEX
  8
contour_intermed
 10
287111.269192853
 20
6717234.50773551
  0
VERTEX
  8
contour_intermed
 10
287111.131719317
 20
6717236.20906109
  0
VERTEX
  8
contour_intermed
 10
287110.819849451
 20
6717237.94088027
  0
VERTEX
  8
contour_intermed
 10
287110.774140083
 20
6717239.46934641
  0
VERTEX
  8
contour_intermed
 10
287111.325535265
 20
6717240.56081721
  0
VERTEX
  8
contour_intermed
 10
287112.405876582
 20
6717241.50922486
  0
VERTEX
  8
contour_intermed
 10
287113.945658386
 20
6717242.02431186
  0
VERTEX
  8
contour_intermed
 10
287115.348392429
 20
6717242.66110824
  0
VERTEX
  8
contour_intermed
 10
287116.557774488
 20
6717243.54072445
  0
VERTEX
  8
contour_intermed
 10
287117.783907296
 20
6717244.29738943
  0
VERTEX
  8
contour_intermed
 10
287118.70409227
 20
6717245.21804832
  0
VERTEX
  8
contour_intermed
 10
287119.175370558
 20
6717246.57696787
  0
VERTEX
  8
contour_intermed
 10
287119.089480831
 20
6717248.21991955
  0
VERTEX
  8
contour_intermed
 10
287118.329802
 20
6717249.9945548
  0
VERTEX
  8
contour_intermed
 10
287117.459304448
 20
6717251.59713267
  0
VERTEX
  8
contour_intermed
 10
287116.424749574
 20
6717253.26907133
  0
VERTEX
  8
contour_intermed
 10
287115.506657559
 20
6717254.64935809
  0
VERTEX
  8
contour_intermed
 10
287114.476296136
 20
6717256.18535554
  0
VERTEX
  8
contour_intermed
 10
287113.392265513
 20
6717257.87928555
  0
VERTEX
  8
contour_intermed
 10
287112.347802133
 20
6717259.61086528
  0
VERTEX
  8
contour_intermed
 10
287110.918971608
 20
6717261.188433
  0
VERTEX
  8
contour_intermed
 10
287109.160225486
 20
6717262.3613537
  0
VERTEX
  8
contour_intermed
 10
287107.052591671
 20
6717263.67310556
  0
VERTEX
  8
contour_intermed
 10
287105.002510244
 20
6717264.76486095
  0
VERTEX
  8
contour_intermed
 10
287102.964622144
 20
6717265.70632027
  0
VERTEX
  8
contour_intermed
 10
287100.857767554
 20
6717266.70150614
  0
VERTEX
  8
contour_intermed
 10
287098.850803802
 20
6717267.56937323
  0
VERTEX
  8
contour_intermed
 10
287096.934001061
 20
6717268.95956777
  0
VERTEX
  8
contour_intermed
 10
287095.350757267
 20
6717270.44010578
  0
VERTEX
  8
contour_intermed
 10
287094.025911159
 20
6717272.244085
  0
VERTEX
  8
contour_intermed
 10
287093.178728908
 20
6717274.14919749
  0
VERTEX
  8
contour_intermed
 10
287092.680375809
 20
6717275.93309475
  0
VERTEX
  8
contour_intermed
 10
287092.423808378
 20
6717277.79609139
  0
VERTEX
  8
contour_intermed
 10
287092.659841016
 20
6717279.24254934
  0
VERTEX
  8
contour_intermed
 10
287093.261732726
 20
6717280.67282161
  0
VERTEX
  8
contour_intermed
 10
287094.372501653
 20
6717281.6925954
  0
VERTEX
  8
contour_intermed
 10
287095.734289414
 20
6717282.36112965
  0
VERTEX
  8
contour_intermed
 10
287097.205044752
 20
6717282.69858977
  0
VERTEX
  8
contour_intermed
 10
287098.721261701
 20
6717282.90489688
  0
VERTEX
  8
contour_intermed
 10
287100.258611905
 20
6717283.05378758
  0
VERTEX
  8
contour_intermed
 10
287101.61525926
 20
6717283.25497335
  0
VERTEX
  8
contour_intermed
 10
287102.615220132
 20
6717283.5917467
  0
VERTEX
  8
contour_intermed
 10
287102.98432867
 20
6717284.29213211
  0
VERTEX
  8
contour_intermed
 10
287102.549689583
 20
6717285.12670635
  0
VERTEX
  8
contour_intermed
 10
287101.219156296
 20
6717285.95673173
  0
VERTEX
  8
contour_intermed
 10
287099.190347971
 20
6717286.7612876
  0
VERTEX
  8
contour_intermed
 10
287097.045786702
 20
6717287.56695258
  0
VERTEX
  8
contour_intermed
 10
287095.004716216
 20
6717288.4081535
  0
VERTEX
  8
contour_intermed
 10
287093
 20
6717289.39497427
  0
VERTEX
  8
contour_intermed
 10
287091
 20
6717290.53259477
  0
VERTEX
  8
contour_intermed
 10
287089
 20
6717291.76575354
  0
VERTEX
  8
contour_intermed
 10
287087
 20
6717292.9087065
  0
VERTEX
  8
contour_intermed
 10
287084.995207716
 20
6717293.99522129
  0
VERTEX
  8
contour_intermed
 10
287082.964032305
 20
6717294.95933806
  0
VERTEX
  8
contour_intermed
 10
287080.866001093
 20
6717296.0986268
  0
VERTEX
  8
contour_intermed
 10
287078.925724081
 20
6717297.33691508
  0
VERTEX
  8
contour_intermed
 10
287077.142665709
 20
6717298.66827945
  0
VERTEX
  8
contour_intermed
 10
287075.505837297
 20
6717300.18931308
  0
VERTEX
  8
contour_intermed
 10
287073.976028579
 20
6717301.83773186
  0
VERTEX
  8
contour_intermed
 10
287072.508161458
 20
6717303.77877038
  0
VERTEX
  8
contour_intermed
 10
287071.09678601
 20
6717305.62405223
  0
VERTEX
  8
contour_intermed
 10
287069.448160284
 20
6717307.70533397
  0
VERTEX
  8
contour_intermed
 10
287067.771712987
 20
6717309.9437196
  0
VERTEX
  8
contour_intermed
 10
287066.351643538
 20
6717311.88436018
  0
VERTEX
  8
contour_intermed
 10
287064.852254768
 20
6717313.99460738
  0
VERTEX
  8
contour_intermed
 10
287063.651795663
 20
6717315.95629869
  0
VERTEX
  8
contour_intermed
 10
287062.702450483
 20
6717317.98247578
  0
VERTEX
  8
contour_intermed
 10
287062.352338681
 20
6717319.81316489
  0
VERTEX
  8
contour_intermed
 10
287062.660991241
 20
6717321.21440828
  0
VERTEX
  8
contour_intermed
 10
287063.318149876
 20
6717322.59085827
  0
VERTEX
  8
contour_intermed
 10
287064.332896417
 20
6717323.63139367
  0
VERTEX
  8
contour_intermed
 10
287065.398330285
 20
6717324.58030049
  0
VERTEX
  8
contour_intermed
 10
287066.599353077
 20
6717325.38064692
  0
VERTEX
  8
contour_intermed
 10
287067.626414458
 20
6717326.35358554
  0
VERTEX
  8
contour_intermed
 10
287068.580255271
 20
6717327.39974473
  0
VERTEX
  8
contour_intermed
 10
287069.543283104
 20
6717328.43671689
  0
VERTEX
  8
contour_intermed
 10
287070.814899997
 20
6717329.1651
  0
VERTEX
  8
contour_intermed
 10
287072.412543694
 20
6717329.56745631
  0
VERTEX
  8
contour_intermed
 10
287074.113937677
 20
6717329.86606232
  0
VERTEX
  8
contour_intermed
 10
287075.735747984
 20
6717330.24425202
  0
VERTEX
  8
contour_intermed
 10
287076.853922705
 20
6717331.12607729
  0
VERTEX
  8
contour_intermed
 10
287077.498501384
 20
6717332.48149862
  0
VERTEX
  8
contour_intermed
 10
287078.028111307
 20
6717333.95188869
  0
VERTEX
  8
contour_intermed
 10
287078.766515976
 20
6717335.21348402
  0
VERTEX
  8
contour_intermed
 10
287079.843038339
 20
6717336.13688559
  0
VERTEX
  8
contour_intermed
 10
287081.409784308
 20
6717336.56976552
  0
VERTEX
  8
contour_intermed
 10
287083.218148625
 20
6717336.76055971
  0
VERTEX
  8
contour_intermed
 10
287085.032405338
 20
6717336.94930124
  0
VERTEX
  8
contour_intermed
 10
287086.790965162
 20
6717337.1981435
  0
VERTEX
  8
contour_intermed
 10
287088.569165569
 20
6717337.47505172
  0
VERTEX
  8
contour_intermed
 10
287090.491647058
 20
6717337.75755822
  0
VERTEX
  8
contour_intermed
 10
287092.149127747
 20
6717338.25553106
  0
VERTEX
  8
contour_intermed
 10
287093.150235133
 20
6717338.98678449
  0
VERTEX
  8
contour_intermed
 10
287093.340403541
 20
6717340.04397811
  0
VERTEX
  8
contour_intermed
 10
287092.643102252
 20
6717341.12617749
  0
VERTEX
  8
contour_intermed
 10
287091.149289804
 20
6717342.02653751
  0
VERTEX
  8
contour_intermed
 10
287089.169373439
 20
6717342.75880347
  0
VERTEX
  8
contour_intermed
 10
287087.043714161
 20
6717343.18863025
  0
VERTEX
  8
contour_intermed
 10
287085.00494442
 20
6717343.70601725
  0
VERTEX
  8
contour_intermed
 10
287082.996500872
 20
6717344.00686016
  0
VERTEX
  8
contour_intermed
 10
287080.968946797
 20
6717344.35420643
  0
VERTEX
  8
contour_intermed
 10
287078.860571154
 20
6717344.94638996
  0
VERTEX
  8
contour_intermed
 10
287076.768823304
 20
6717345.68890929
  0
VERTEX
  8
contour_intermed
 10
287074.86815853
 20
6717346.80003062
  0
VERTEX
  8
contour_intermed
 10
287073.412471629
 20
6717348.11161562
  0
VERTEX
  8
contour_intermed
 10
287072.405879446
 20
6717349.82253929
  0
VERTEX
  8
contour_intermed
 10
287071.713919557
 20
6717352.00285947
  0
VERTEX
  8
contour_intermed
 10
287071.248559221
 20
6717354.11284126
  0
VERTEX
  8
contour_intermed
 10
287070.592560724
 20
6717356.10207672
  0
VERTEX
  8
contour_intermed
 10
287069.886839207
 20
6717357.95950574
  0
VERTEX
  8
contour_intermed
 10
287069.25840823
 20
6717359.78429868
  0
VERTEX
  8
contour_intermed
 10
287069.120821536
 20
6717361.45095366
  0
VERTEX
  8
contour_intermed
 10
287069.212859249
 20
6717363.06964414
  0
VERTEX
  8
contour_intermed
 10
287069.067905409
 20
6717364.67080055
  0
VERTEX
  8
contour_intermed
 10
287068.42687244
 20
6717366.1932648
  0
VERTEX
  8
contour_intermed
 10
287067.022577584
 20
6717367.54797913
  0
VERTEX
  8
contour_intermed
 10
287065.102480416
 20
6717368.46552381
  0
VERTEX
  8
contour_intermed
 10
287062.913381497
 20
6717369.53324301
  0
VERTEX
  8
contour_intermed
 10
287061.054806939
 20
6717370.52374965
  0
VERTEX
  8
contour_intermed
 10
287059.338718313
 20
6717372.10240055
  0
VERTEX
  8
contour_intermed
 10
287057.785231027
 20
6717373.95266369
  0
VERTEX
  8
contour_intermed
 10
287056.255888077
 20
6717376.21160357
  0
VERTEX
  8
contour_intermed
 10
287054.895842393
 20
6717378.36463376
  0
VERTEX
  8
contour_intermed
 10
287053.394527105
 20
6717380.22682209
  0
VERTEX
  8
contour_intermed
 10
287051.794245315
 20
6717381.828721
  0
VERTEX
  8
contour_intermed
 10
287050.342471123
 20
6717383.08356562
  0
VERTEX
  8
contour_intermed
 10
287048.786511091
 20
6717383.96815199
  0
VERTEX
  8
contour_intermed
 10
287046.966994348
 20
6717384.34482712
  0
VERTEX
  8
contour_intermed
 10
287045.017411293
 20
6717384.82538298
  0
VERTEX
  8
contour_intermed
 10
287043.215051385
 20
6717385.03978355
  0
VERTEX
  8
contour_intermed
 10
287041.64855163
 20
6717384.88828168
  0
VERTEX
  8
contour_intermed
 10
287040.231240664
 20
6717384.56189848
  0
VERTEX
  8
contour_intermed
 10
287038.746593749
 20
6717384.24198973
  0
VERTEX
  8
contour_intermed
 10
287037.100311994
 20
6717384.20173606
  0
VERTEX
  8
contour_intermed
 10
287035.063145061
 20
6717384.62289749
  0
VERTEX
  8
contour_intermed
 10
287033.013008875
 20
6717385.65112301
  0
VERTEX
  8
contour_intermed
 10
287031.000912816
 20
6717387.12996969
  0
VERTEX
  8
contour_intermed
 10
287029
 20
6717388.62924604
  0
VERTEX
  8
contour_intermed
 10
287027
 20
6717390.14566567
  0
VERTEX
  8
contour_intermed
 10
287025
 20
6717391.77673483
  0
VERTEX
  8
contour_intermed
 10
287023
 20
6717393.04391598
  0
VERTEX
  8
contour_intermed
 10
287021
 20
6717394.03627457
  0
VERTEX
  8
contour_intermed
 10
287019
 20
6717395.03637174
  0
VERTEX
  8
contour_intermed
 10
287017
 20
6717395.97782506
  0
VERTEX
  8
contour_intermed
 10
287015
 20
6717396.97330586
  0
VERTEX
  8
contour_intermed
 10
287013
 20
6717397.7049781
  0
VERTEX
  8
contour_intermed
 10
287011
 20
6717398.16537102
  0
VERTEX
  8
contour_intermed
 10
287009
 20
6717398.32262068
  0
VERTEX
  8
contour_intermed
 10
287007
 20
6717398.13527049
  0
VERTEX
  8
contour_intermed
 10
287005
 20
6717397.7969022
  0
VERTEX
  8
contour_intermed
 10
287003
 20
6717397.58028408
  0
VERTEX
  8
contour_intermed
 10
287000.99353422
 20
6717397.42440354
  0
VERTEX
  8
contour_intermed
 10
286998.9541285
 20
6717397.49601226
  0
VERTEX
  8
contour_intermed
 10
286996.837584491
 20
6717397.54256003
  0
VERTEX
  8
contour_intermed
 10
286994.963268843
 20
6717397.53034193
  0
VERTEX
  8
contour_intermed
 10
286993.200580893
 20
6717397.39213285
  0
VERTEX
  8
contour_intermed
 10
286991.634553577
 20
6717397.10248692
  0
VERTEX
  8
contour_intermed
 10
286990.21328509
 20
6717396.82716295
  0
VERTEX
  8
contour_intermed
 10
286988.731473382
 20
6717396.53273538
  0
VERTEX
  8
contour_intermed
 10
286987.090315286
 20
6717396.22007678
  0
VERTEX
  8
contour_intermed
 10
286985.065775304
 20
6717396.1567785
  0
VERTEX
  8
contour_intermed
 10
286983.00842609
 20
6717396.24323723
  0
VERTEX
  8
contour_intermed
 10
286980.958420731
 20
6717396.46029122
  0
VERTEX
  8
contour_intermed
 10
286978.843203077
 20
6717396.93806298
  0
VERTEX
  8
contour_intermed
 10
286976.9234582
 20
6717397.45657976
  0
VERTEX
  8
contour_intermed
 10
286975.064789915
 20
6717398.02045999
  0
VERTEX
  8
contour_intermed
 10
286973.440773871
 20
6717398.48583503
  0
VERTEX
  8
contour_intermed
 10
286972.062234614
 20
6717398.98249566
  0
VERTEX
  8
contour_intermed
 10
286971.01682464
 20
6717399.47844293
  0
VERTEX
  8
contour_intermed
 10
286970.143605231
 20
6717399.88604581
  0
VERTEX
  8
contour_intermed
 10
286969.279785947
 20
6717400.26067622
  0
VERTEX
  8
contour_intermed
 10
286968.620825084
 20
6717400.56054237
  0
VERTEX
  8
contour_intermed
 10
286967.859676779
 20
6717400.84523563
  0
VERTEX
  8
contour_intermed
 10
286967
 20
6717401.12
  0
SEQEND
  0
POLYLINE
 66
1
  8
contour
  0
VERTEX
  8
contour
 10
287157.92
 20
6717219
  0
VERTEX
  8
contour
 10
287157.695255167
 20
6717219.9557021
  0
VERTEX
  8
contour
 10
287157.341591495
 20
6717220.73319338
  0
VERTEX
  8
contour
 10
287156.875625755
 20
6717220.97210296
  0
VERTEX
  8
contour
 10
287155.931253761
 20
6717221.62389419
  0
VERTEX
  8
contour
 10
287154.495103249
 20
6717222.78588235
  0
VERTEX
  8
contour
 10
287152.647167527
 20
6717224.86921228
  0
VERTEX
  8
contour
 10
287150.693901654
 20
6717228.00423949
  0
VERTEX
  8
contour
 10
287149.01561556
 20
6717231.80864607
  0
VERTEX
  8
contour
 10
287147.399659466
 20
6717236.34667699
  0
VERTEX
  8
contour
 10
287146.149194967
 20
6717240.45076755
  0
VERTEX
  8
contour
 10
287145.320388274
 20
6717244.16623144
  0
VERTEX
  8
contour
 10
287144.518872365
 20
6717247.21357811
  0
VERTEX
  8
contour
 10
287143.020721815
 20
6717249.22401124
  0
VERTEX
  8
contour
 10
287140.913460397
 20
6717250.59888514
  0
VERTEX
  8
contour
 10
287138.696627198
 20
6717251.46942366
  0
VERTEX
  8
contour
 10
287136.839951456
 20
6717252.57044641
  0
VERTEX
  8
contour
 10
287135.638435288
 20
6717253.82983649
  0
VERTEX
  8
contour
 10
287134.957902977
 20
6717255.35209196
  0
VERTEX
  8
contour
 10
287135.188573477
 20
6717256.81014621
  0
VERTEX
  8
contour
 10
287135.80103437
 20
6717258.12685081
  0
VERTEX
  8
contour
 10
287136.347580814
 20
6717259.48433281
  0
VERTEX
  8
contour
 10
287136.653509983
 20
6717260.88463393
  0
VERTEX
  8
contour
 10
287136.773302857
 20
6717262.32479455
  0
VERTEX
  8
contour
 10
287136.923078253
 20
6717263.60506082
  0
VERTEX
  8
contour
 10
287136.793010193
 20
6717265.10572096
  0
VERTEX
  8
contour
 10
287136.823414413
 20
6717266.59267044
  0
VERTEX
  8
contour
 10
287136.905134178
 20
6717268.04412388
  0
VERTEX
  8
contour
 10
287137.027198748
 20
6717269.37733065
  0
VERTEX
  8
contour
 10
287137.267928939
 20
6717270.6490506
  0
VERTEX
  8
contour
 10
287137.346877824
 20
6717272.40689749
  0
VERTEX
  8
contour
 10
287137.624148633
 20
6717274.3913664
  0
VERTEX
  8
contour
 10
287137.657119306
 20
6717276.70158985
  0
VERTEX
  8
contour
 10
287137.757964371
 20
6717279.1121204
  0
VERTEX
  8
contour
 10
287138.253994965
 20
6717281.18531179
  0
VERTEX
  8
contour
 10
287139.028932508
 20
6717282.86144203
  0
VERTEX
  8
contour
 10
287140.574674172
 20
6717283.51844549
  0
VERTEX
  8
contour
 10
287142.214321773
 20
6717283.78905729
  0
VERTEX
  8
contour
 10
287144.026151628
 20
6717283.85956021
  0
VERTEX
  8
contour
 10
287145.952795773
 20
6717283.72009468
  0
VERTEX
  8
contour
 10
287147.974740216
 20
6717284.25165907
  0
VERTEX
  8
contour
 10
287149.642742114
 20
6717285.30392693
  0
VERTEX
  8
contour
 10
287150.699679283
 20
6717286.99139451
  0
VERTEX
  8
contour
 10
287150.598859924
 20
6717289.41770086
  0
VERTEX
  8
contour
 10
287149.361538712
 20
6717291.81146679
  0
VERTEX
  8
contour
 10
287147.496326641
 20
6717293.4763352
  0
VERTEX
  8
contour
 10
287145.435802436
 20
6717293.51163255
  0
VERTEX
  8
contour
 10
287143.884516191
 20
6717292.86298498
  0
VERTEX
  8
contour
 10
287142.344907272
 20
6717292.22871996
  0
VERTEX
  8
contour
 10
287140.895100606
 20
6717291.72673031
  0
VERTEX
  8
contour
 10
287139.2933561
 20
6717291.28272968
  0
VERTEX
  8
contour
 10
287137.642189401
 20
6717290.99851363
  0
VERTEX
  8
contour
 10
287136.158708114
 20
6717290.73680077
  0
VERTEX
  8
contour
 10
287134.591648817
 20
6717290.27029609
  0
VERTEX
  8
contour
 10
287132.971269241
 20
6717289.87250132
  0
VERTEX
  8
contour
 10
287131.156119851
 20
6717289.55219781
  0
VERTEX
  8
contour
 10
287129.383272185
 20
6717289.33969207
  0
VERTEX
  8
contour
 10
287127.867881056
 20
6717288.95728152
  0
VERTEX
  8
contour
 10
287126.616050983
 20
6717288.4358492
  0
VERTEX
  8
contour
 10
287125.358943208
 20
6717287.8236567
  0
VERTEX
  8
contour
 10
287124.000270105
 20
6717287.15976422
  0
VERTEX
  8
contour
 10
287122.500402797
 20
6717286.55266602
  0
VERTEX
  8
contour
 10
287120.920994547
 20
6717286.12862641
  0
VERTEX
  8
contour
 10
287119.111366165
 20
6717285.98924743
  0
VERTEX
  8
contour
 10
287117.037768387
 20
6717285.88503966
  0
VERTEX
  8
contour
 10
287115.005096556
 20
6717286.09767164
  0
VERTEX
  8
contour
 10
287113
 20
6717286.48448197
  0
VERTEX
  8
contour
 10
287111
 20
6717287.064852
  0
VERTEX
  8
contour
 10
287109
 20
6717287.91778423
  0
VERTEX
  8
contour
 10
287107
 20
6717288.84440489
  0
VERTEX
  8
contour
 10
287105
 20
6717289.78274857
  0
VERTEX
  8
contour
 10
287103
 20
6717290.48968258
  0
VERTEX
  8
contour
 10
287101
 20
6717291.13776065
  0
VERTEX
  8
contour
 10
287098.99391456
 20
6717291.72263156
  0
VERTEX
  8
contour
 10
287096.950446061
 20
6717292.38690308
  0
VERTEX
  8
contour
 10
287094.792498632
 20
6717293.27520644
  0
VERTEX
  8
contour
 10
287092.727842978
 20
6717294.37840944
  0
VERTEX
  8
contour
 10
287090.829033664
 20
6717295.6212752
  0
VERTEX
  8
contour
 10
287089.377072107
 20
6717296.77880029
  0
VERTEX
  8
contour
 10
287088.614781007
 20
6717297.98339237
  0
VERTEX
  8
contour
 10
287088.642069383
 20
6717299.21200111
  0
VERTEX
  8
contour
 10
287089.573204
 20
6717300.23294244
  0
VERTEX
  8
contour
 10
287091.009469148
 20
6717301.10037466
  0
VERTEX
  8
contour
 10
287092.483680659
 20
6717301.87283367
  0
VERTEX
  8
contour
 10
287093.568018161
 20
6717302.75045764
  0
VERTEX
  8
contour
 10
287093.800514109
 20
6717303.84067587
  0
VERTEX
  8
contour
 10
287092.993960815
 20
6717305.17429596
  0
VERTEX
  8
contour
 10
287091.280416325
 20
6717306.49508
  0
VERTEX
  8
contour
 10
287089.162724786
 20
6717307.44930886
  0
VERTEX
  8
contour
 10
287087.196517729
 20
6717308.08509548
  0
VERTEX
  8
contour
 10
287084.972407608
 20
6717308.97876288
  0
VERTEX
  8
contour
 10
287082.582247889
 20
6717310.41866171
  0
VERTEX
  8
contour
 10
287079.988122064
 20
6717312.32160527
  0
VERTEX
  8
contour
 10
287077.423433979
 20
6717314.66558852
  0
VERTEX
  8
contour
 10
287075.418223595
 20
6717317.22989475
  0
VERTEX
  8
contour
 10
287074.322077038
 20
6717319.57474461
  0
VERTEX
  8
contour
 10
287074.599473296
 20
6717321.23406343
  0
VERTEX
  8
contour
 10
287075.640765205
 20
6717322.27371379
  0
VERTEX
  8
contour
 10
287077.166283194
 20
6717322.80088501
  0
VERTEX
  8
contour
 10
287078.956861612
 20
6717323.0219213
  0
VERTEX
  8
contour
 10
287080.744936776
 20
6717323.23506322
  0
VERTEX
  8
contour
 10
287082.570576416
 20
6717323.40942358
  0
VERTEX
  8
contour
 10
287084.384286774
 20
6717323.59571323
  0
VERTEX
  8
contour
 10
287086.377779579
 20
6717323.60222042
  0
VERTEX
  8
contour
 10
287088.394066188
 20
6717323.58593381
  0
VERTEX
  8
contour
 10
287090.438952321
 20
6717323.54104768
  0
VERTEX
  8
contour
 10
287092.45173235
 20
6717323.52826765
  0
VERTEX
  8
contour
 10
287094.01582515
 20
6717323.96417485
  0
VERTEX
  8
contour
 10
287095.330597334
 20
6717324.64940267
  0
VERTEX
  8
contour
 10
287096.32777291
 20
6717325.65428092
  0
VERTEX
  8
contour
 10
287097.291358946
 20
6717326.70840252
  0
VERTEX
  8
contour
 10
287098.56803529
 20
6717327.49946372
  0
VERTEX
  8
contour
 10
287100.301826708
 20
6717327.8138861
  0
VERTEX
  8
contour
 10
287102.309831584
 20
6717327.61405075
  0
VERTEX
  8
contour
 10
287104.27130054
 20
6717327.34477491
  0
VERTEX
  8
contour
 10
287106.025084873
 20
6717327.08877112
  0
VERTEX
  8
contour
 10
287107.796737855
 20
6717326.74784321
  0
VERTEX
  8
contour
 10
287109.603191167
 20
6717326.50942851
  0
VERTEX
  8
contour
 10
287111.394861631
 20
6717326.58853501
  0
VERTEX
  8
contour
 10
287113.366089793
 20
6717326.69591816
  0
VERTEX
  8
contour
 10
287115.258630553
 20
6717326.65943866
  0
VERTEX
  8
contour
 10
287116.877985533
 20
6717326.44396732
  0
VERTEX
  8
contour
 10
287117.958378914
 20
6717326.5786351
  0
VERTEX
  8
contour
 10
287118.928372331
 20
6717327.45627947
  0
VERTEX
  8
contour
 10
287119.16897672
 20
6717329.32271877
  0
VERTEX
  8
contour
 10
287118.882569583
 20
6717332.1166426
  0
VERTEX
  8
contour
 10
287118.22038035
 20
6717335.38983486
  0
VERTEX
  8
contour
 10
287117.173053319
 20
6717338.56693523
  0
VERTEX
  8
contour
 10
287115.91756166
 20
6717340.79387274
  0
VERTEX
  8
contour
 10
287114.183275694
 20
6717342.43802577
  0
VERTEX
  8
contour
 10
287112.657764195
 20
6717343.77273311
  0
VERTEX
  8
contour
 10
287111.041229805
 20
6717345.11556559
  0
VERTEX
  8
contour
 10
287109.078049766
 20
6717346.00540284
  0
VERTEX
  8
contour
 10
287107.020661815
 20
6717346.5903943
  0
VERTEX
  8
contour
 10
287105.009812772
 20
6717347.40475607
  0
VERTEX
  8
contour
 10
287103.052624094
 20
6717348.33866668
  0
VERTEX
  8
contour
 10
287101.184604981
 20
6717349.43118822
  0
VERTEX
  8
contour
 10
287099.01805215
 20
6717350.11354965
  0
VERTEX
  8
contour
 10
287096.735188117
 20
6717350.8927315
  0
VERTEX
  8
contour
 10
287093.939288997
 20
6717351.7360125
  0
VERTEX
  8
contour
 10
287091.335955116
 20
6717353.13493193
  0
VERTEX
  8
contour
 10
287088.986248341
 20
6717355.68041568
  0
VERTEX
  8
contour
 10
287087.386429079
 20
6717358.90764917
  0
VERTEX
  8
contour
 10
287087.076226919
 20
6717362.08021503
  0
VERTEX
  8
contour
 10
287087.345757878
 20
6717364.4365717
  0
VERTEX
  8
contour
 10
287088.414621352
 20
6717365.90110895
  0
VERTEX
  8
contour
 10
287089.36851453
 20
6717366.96677169
  0
VERTEX
  8
contour
 10
287090.212229344
 20
6717367.98508405
  0
VERTEX
  8
contour
 10
287090.65575144
 20
6717368.82890328
  0
VERTEX
  8
contour
 10
287090.281861586
 20
6717369.82466046
  0
VERTEX
  8
contour
 10
287089.13914296
 20
6717370.92768557
  0
VERTEX
  8
contour
 10
287087.230721819
 20
6717372.32660741
  0
VERTEX
  8
contour
 10
287085.062100171
 20
6717373.85718622
  0
VERTEX
  8
contour
 10
287083.007074324
 20
6717375.2625316
  0
VERTEX
  8
contour
 10
287081
 20
6717376.73539362
  0
VERTEX
  8
contour
 10
287079
 20
6717377.9770966
  0
VERTEX
  8
contour
 10
287077
 20
6717379.06576095
  0
VERTEX
  8
contour
 10
287075
 20
6717380.14509117
  0
VERTEX
  8
contour
 10
287073
 20
6717381.33395843
  0
VERTEX
  8
contour
 10
287071
 20
6717382.35112771
  0
VERTEX
  8
contour
 10
287069
 20
6717383.04762044
  0
VERTEX
  8
contour
 10
287067
 20
6717383.5982834
  0
VERTEX
  8
contour
 10
287065
 20
6717384.04860304
  0
VERTEX
  8
contour
 10
287063
 20
6717384.57271727
  0
VERTEX
  8
contour
 10
287061
 20
6717385.40527698
  0
VERTEX
  8
contour
 10
287059
 20
6717386.56509334
  0
VERTEX
  8
contour
 10
287056.99467524
 20
6717388.03359219
  0
VERTEX
  8
contour
 10
287054.960881094
 20
6717389.37592165
  0
VERTEX
  8
contour
 10
287052.856959447
 20
6717390.51185341
  0
VERTEX
  8
contour
 10
287050.937670141
 20
6717391.2216055
  0
VERTEX
  8
contour
 10
287049.163219714
 20
6717391.36244072
  0
VERTEX
  8
contour
 10
287047.564563311
 20
6717391.21321529
  0
VERTEX
  8
contour
 10
287046.123507223
 20
6717390.78216255
  0
VERTEX
  8
contour
 10
287044.655871542
 20
6717390.43970541
  0
VERTEX
  8
contour
 10
287043.040331745
 20
6717389.96333454
  0
VERTEX
  8
contour
 10
287041.073525685
 20
6717389.59951845
  0
VERTEX
  8
contour
 10
287038.98002155
 20
6717389.81348152
  0
VERTEX
  8
contour
 10
287036.841339564
 20
6717390.53707525
  0
VERTEX
  8
contour
 10
287034.85650741
 20
6717391.85992985
  0
VERTEX
  8
contour
 10
287032.984334766
 20
6717393.75943874
  0
VERTEX
  8
contour
 10
287031.48037119
 20
6717395.89987836
  0
VERTEX
  8
contour
 10
287030.377946021
 20
6717398.1280209
  0
VERTEX
  8
contour
 10
287029.618490101
 20
6717400.16949426
  0
VERTEX
  8
contour
 10
287028.956100491
 20
6717402.09532527
  0
VERTEX
  8
contour
 10
287028.003454638
 20
6717403.96854
  0
VERTEX
  8
contour
 10
287026.73447989
 20
6717405.44244458
  0
VERTEX
  8
contour
 10
287025.012904862
 20
6717406.81466521
  0
VERTEX
  8
contour
 10
287022.969283997
 20
6717407.93200662
  0
VERTEX
  8
contour
 10
287020.941998664
 20
6717408.68587657
  0
VERTEX
  8
contour
 10
287019.132741725
 20
6717409.15419905
  0
VERTEX
  8
contour
 10
287017.488645341
 20
6717409.30644497
  0
VERTEX
  8
contour
 10
287015.971117362
 20
6717409.22065941
  0
VERTEX
  8
contour
 10
287014.433615808
 20
6717408.90707405
  0
VERTEX
  8
contour
 10
287012.997207098
 20
6717408.56588294
  0
VERTEX
  8
contour
 10
287011.286428771
 20
6717407.96896765
  0
VERTEX
  8
contour
 10
287009.724498116
 20
6717407.27716875
  0
VERTEX
  8
contour
 10
287008.434528225
 20
6717406.49735352
  0
VERTEX
  8
contour
 10
287007.193226204
 20
6717405.62811862
  0
VERTEX
  8
contour
 10
287006.17273896
 20
6717404.92547915
  0
VERTEX
  8
contour
 10
287004.911839237
 20
6717404.06977468
  0
VERTEX
  8
contour
 10
287003.710151746
 20
6717403.36021469
  0
VERTEX
  8
contour
 10
287002.354486908
 20
6717402.57203116
  0
VERTEX
  8
contour
 10
287000.954878983
 20
6717401.85431514
  0
VERTEX
  8
contour
 10
286999.491662651
 20
6717401.50951066
  0
VERTEX
  8
contour
 10
286997.878881789
 20
6717401.22536505
  0
VERTEX
  8
contour
 10
286996.311258405
 20
6717401.21462024
  0
VERTEX
  8
contour
 10
286994.832928232
 20
6717401.27629894
  0
VERTEX
  8
contour
 10
286993.27149738
 20
6717401.31641561
  0
VERTEX
  8
contour
 10
286991.59058451
 20
6717401.22884023
  0
VERTEX
  8
contour
 10
286990.111028546
 20
6717400.85322929
  0
VERTEX
  8
contour
 10
286988.640751174
 20
6717400.43991069
  0
VERTEX
  8
contour
 10
286987.026379501
 20
6717400.07638313
  0
VERTEX
  8
contour
 10
286985.050540963
 20
6717399.82525275
  0
VERTEX
  8
contour
 10
286982.902671901
 20
6717399.92164728
  0
VERTEX
  8
contour
 10
286980.9031483
 20
6717400.07419483
  0
VERTEX
  8
contour
 10
286979.073415145
 20
6717400.33318728
  0
VERTEX
  8
contour
 10
286977.320058199
 20
6717400.61266873
  0
VERTEX
  8
contour
 10
286975.963971109
 20
6717400.76971431
  0
VERTEX
  8
contour
 10
286974.68889287
 20
6717400.95454277
  0
VERTEX
  8
contour
 10
286973.380356192
 20
6717401.08234112
  0
VERTEX
  8
contour
 10
286972.081445653
 20
6717401.41385897
  0
VERTEX
  8
contour
 10
286970.860717867
 20
6717401.91192126
  0
VERTEX
  8
contour
 10
286970.02393715
 20
6717402.39389957
  0
VERTEX
  8
contour
 10
286969.22634211
 20
6717402.814859
  0
VERTEX
  8
contour
 10
286968.693490646
 20
6717403.02675739
  0
VERTEX
  8
contour
 10
286967.980139067
 20
6717403.33202364
  0
VERTEX
  8
contour
 10
286967
 20
6717403.76
  0
SEQEND
  0
POLYLINE
 66
1
  8
contour
  0
VERTEX
  8
contour
 10
286967
 20
6717446.68
  0
VERTEX
  8
contour
 10
286967.215994333
 20
6717446.98427887
  0
VERTEX
  8
contour
 10
286967.418141889
 20
6717447.50611223
  0
VERTEX
  8
contour
 10
286967.752443919
 20
6717448.04555658
  0
VERTEX
  8
contour
 10
286968.140954655
 20
6717449.0125799
  0
VERTEX
  8
contour
 10
286968.596979704
 20
6717450.17917878
  0
VERTEX
  8
contour
 10
286968.737164203
 20
6717451.44655433
  0
VERTEX
  8
contour
 10
286968.739446844
 20
6717453.12986013
  0
VERTEX
  8
contour
 10
286968.445921149
 20
6717455.03659548
  0
VERTEX
  8
contour
 10
286968.20721181
 20
6717456.93624277
  0
VERTEX
  8
contour
 10
286968.339497177
 20
6717458.69125678
  0
VERTEX
  8
contour
 10
286968.72966961
 20
6717460.21166348
  0
VERTEX
  8
contour
 10
286969.323714132
 20
6717461.62637533
  0
VERTEX
  8
contour
 10
286969.81108088
 20
6717463.14809911
  0
VERTEX
  8
contour
 10
286970.234473566
 20
6717464.89038659
  0
VERTEX
  8
contour
 10
286970.499840877
 20
6717467.04392027
  0
VERTEX
  8
contour
 10
286970.546360679
 20
6717469.18106254
  0
VERTEX
  8
contour
 10
286970.379738188
 20
6717471.11741836
  0
VERTEX
  8
contour
 10
286970.158894294
 20
6717472.69730072
  0
VERTEX
  8
contour
 10
286969.619455642
 20
6717474.02174886
  0
VERTEX
  8
contour
 10
286969.024351863
 20
6717475.12793229
  0
VERTEX
  8
contour
 10
286968.482407244
 20
6717476.01818068
  0
VERTEX
  8
contour
 10
286967.906307396
 20
6717477.00378627
  0
VERTEX
  8
contour
 10
286967.466341449
 20
6717478.09991199
  0
VERTEX
  8
contour
 10
286967.195796977
 20
6717479.01143724
  0
VERTEX
  8
contour
 10
286967
 20
6717479.74
  0
SEQEND
  0
POLYLINE
 66
1
  8
contour
  0
VERTEX
  8
contour
 10
286967
 20
6717487.64
  0
VERTEX
  8
contour
 10
286968.103133448
 20
6717487.61647235
  0
VERTEX
  8
contour
 10
286969.189355078
 20
6717487.5551925
  0
VERTEX
  8
contour
 10
286970.316925875
 20
6717487.29275458
  0
VERTEX
  8
contour
 10
286971.497084074
 20
6717487.06004211
  0
VERTEX
  8
contour
 10
286972.770986407
 20
6717486.91160501
  0
VERTEX
  8
contour
 10
286973.929599148
 20
6717487.16691952
  0
VERTEX
  8
contour
 10
286974.931447368
 20
6717487.92870714
  0
VERTEX
  8
contour
 10
286975.522039542
 20
6717489.37150129
  0
VERTEX
  8
contour
 10
286976.009478502
 20
6717491.07275557
  0
VERTEX
  8
contour
 10
286976.421255155
 20
6717492.78309548
  0
VERTEX
  8
contour
 10
286976.620071355
 20
6717494.49819142
  0
VERTEX
  8
contour
 10
286976.772015007
 20
6717495.99231713
  0
VERTEX
  8
contour
 10
286976.843677797
 20
6717497.44493091
  0
VERTEX
  8
contour
 10
286976.437047602
 20
6717499.02631298
  0
VERTEX
  8
contour
 10
286975.848802878
 20
6717500.90962398
  0
VERTEX
  8
contour
 10
286975.124747111
 20
6717503.01578723
  0
VERTEX
  8
contour
 10
286974.436717781
 20
6717505.17501534
  0
VERTEX
  8
contour
 10
286973.710321862
 20
6717507.15642447
  0
VERTEX
  8
contour
 10
286973.158434852
 20
6717509.0432092
  0
VERTEX
  8
contour
 10
286973.172883548
 20
6717510.55515315
  0
VERTEX
  8
contour
 10
286973.775230256
 20
6717511.56617395
  0
VERTEX
  8
contour
 10
286974.981932533
 20
6717512.15629188
  0
VERTEX
  8
contour
 10
286976.71760972
 20
6717512.47424331
  0
VERTEX
  8
contour
 10
286978.637079218
 20
6717512.7680832
  0
VERTEX
  8
contour
 10
286980.173499062
 20
6717513.04447964
  0
VERTEX
  8
contour
 10
286981.418373157
 20
6717513.66691471
  0
VERTEX
  8
contour
 10
286982.503272792
 20
6717514.48342775
  0
VERTEX
  8
contour
 10
286983.432838666
 20
6717515.48489071
  0
VERTEX
  8
contour
 10
286984.314979404
 20
6717516.64949035
  0
VERTEX
  8
contour
 10
286984.974821517
 20
6717517.87945626
  0
VERTEX
  8
contour
 10
286985.876339421
 20
6717519.13143954
  0
VERTEX
  8
contour
 10
286986.91146345
 20
6717520.04357873
  0
VERTEX
  8
contour
 10
286987.83214044
 20
6717521.06264018
  0
VERTEX
  8
contour
 10
286988.65706061
 20
6717522.26233151
  0
VERTEX
  8
contour
 10
286989.252582061
 20
6717523.53695662
  0
VERTEX
  8
contour
 10
286989.800689966
 20
6717525.04352968
  0
VERTEX
  8
contour
 10
286990.380545567
 20
6717526.51844652
  0
VERTEX
  8
contour
 10
286991.253587003
 20
6717527.89345344
  0
VERTEX
  8
contour
 10
286992.012643816
 20
6717529.15548514
  0
VERTEX
  8
contour
 10
286992.6301999
 20
6717530.24967778
  0
VERTEX
  8
contour
 10
286992.86301256
 20
6717531.44197018
  0
VERTEX
  8
contour
 10
286992.825290522
 20
6717532.56132953
  0
VERTEX
  8
contour
 10
286992.833618263
 20
6717533.39163286
  0
VERTEX
  8
contour
 10
286993.15144159
 20
6717533.85948787
  0
VERTEX
  8
contour
 10
286993.984231762
 20
6717533.97869407
  0
VERTEX
  8
contour
 10
286994.813740459
 20
6717534.15781664
  0
VERTEX
  8
contour
 10
286995.436999673
 20
6717534.49967072
  0
VERTEX
  8
contour
 10
286995.88
 20
6717535
  0
SEQEND
  0
POLYLINE
 66
1
  8
contour
  0
VERTEX
  8
contour
 10
287113.087503645
 20
6717274.03782048
  0
VERTEX
  8
contour
 10
287112.401009229
 20
6717275.00622375
  0
VERTEX
  8
contour
 10
287112.077448456
 20
6717276.00565051
  0
VERTEX
  8
contour
 10
287111.771321745
 20
6717277.05820677
  0
VERTEX
  8
contour
 10
287112.491144393
 20
6717277.81041955
  0
VERTEX
  8
contour
 10
287113.602854564
 20
6717278.38735673
  0
VERTEX
  8
contour
 10
287115.188797539
 20
6717278.79404406
  0
VERTEX
  8
contour
 10
287117.365928374
 20
6717278.92493429
  0
VERTEX
  8
contour
 10
287119.731001544
 20
6717278.72646749
  0
VERTEX
  8
contour
 10
287122.151128936
 20
6717278.0082693
  0
VERTEX
  8
contour
 10
287124.198774109
 20
6717276.74550168
  0
VERTEX
  8
contour
 10
287125.589463407
 20
6717275.14662083
  0
VERTEX
  8
contour
 10
287126.116462286
 20
6717273.26920686
  0
VERTEX
  8
contour
 10
287125.692718016
 20
6717271.46952156
  0
VERTEX
  8
contour
 10
287124.814584803
 20
6717270.26191774
  0
VERTEX
  8
contour
 10
287123.715344081
 20
6717269.37386594
  0
VERTEX
  8
contour
 10
287122.603088451
 20
6717269.06003216
  0
VERTEX
  8
contour
 10
287121.163924468
 20
6717269.38067531
  0
VERTEX
  8
contour
 10
287119.501034795
 20
6717270.21399747
  0
VERTEX
  8
contour
 10
287118.081677617
 20
6717271.15316369
  0
VERTEX
  8
contour
 10
287116.926894674
 20
6717271.67905397
  0
VERTEX
  8
contour
 10
287115.934955371
 20
6717272.14621271
  0
VERTEX
  8
contour
 10
287114.951585135
 20
6717272.63406422
  0
VERTEX
  8
contour
 10
287113.98679736
 20
6717273.22338168
  0
VERTEX
  8
contour
 10
287113.087503645
 20
6717274.03782048
  0
SEQEND
  0
POLYLINE
 66
1
  8
contour_intermed
  0
VERTEX
  8
contour_intermed
 10
286967
 20
6717407.56
  0
VERTEX
  8
contour_intermed
 10
286968.040300893
 20
6717407.67379402
  0
VERTEX
  8
contour_intermed
 10
286969.05707637
 20
6717407.77594855
  0
VERTEX
  8
contour_intermed
 10
286970.019827463
 20
6717407.93878673
  0
VERTEX
  8
contour_intermed
 10
286971.31993753
 20
6717407.53280994
  0
VERTEX
  8
contour_intermed
 10
286972.980798746
 20
6717406.82071393
  0
VERTEX
  8
contour_intermed
 10
286974.901452566
 20
6717405.78136068
  0
VERTEX
  8
contour_intermed
 10
286976.973517112
 20
6717404.7182011
  0
VERTEX
  8
contour_intermed
 10
286979.017536792
 20
6717403.93192664
  0
VERTEX
  8
contour_intermed
 10
286981.091374005
 20
6717403.59142675
  0
VERTEX
  8
contour_intermed
 10
286983.137210978
 20
6717403.5417793
  0
VERTEX
  8
contour_intermed
 10
286984.983181943
 20
6717403.66067936
  0
VERTEX
  8
contour_intermed
 10
286986.793237741
 20
6717404.17398529
  0
VERTEX
  8
contour_intermed
 10
286988.198005444
 20
6717404.81896114
  0
VERTEX
  8
contour_intermed
 10
286989.532937356
 20
6717405.70403926
  0
VERTEX
  8
contour_intermed
 10
286990.625336806
 20
6717406.47249562
  0
VERTEX
  8
contour_intermed
 10
286991.551513536
 20
6717407.42463335
  0
VERTEX
  8
contour_intermed
 10
286992.499713288
 20
6717408.43562368
  0
VERTEX
  8
contour_intermed
 10
286993.325448203
 20
6717409.49373045
  0
VERTEX
  8
contour_intermed
 10
286994.213998761
 20
6717410.64483612
  0
VERTEX
  8
contour_intermed
 10
286995.171601224
 20
6717411.64498959
  0
VERTEX
  8
contour_intermed
 10
286996.558208374
 20
6717412.50606009
  0
VERTEX
  8
contour_intermed
 10
286998.21893923
 20
6717413.04842623
  0
VERTEX
  8
contour_intermed
 10
286999.707965799
 20
6717413.76169143
  0
VERTEX
  8
contour_intermed
 10
287000.694341579
 20
6717414.43872534
  0
VERTEX
  8
contour_intermed
 10
287000.939264063
 20
6717415.41758414
  0
VERTEX
  8
contour_intermed
 10
287000.127125297
 20
6717416.52503438
  0
VERTEX
  8
contour_intermed
 10
286998.321739322
 20
6717417.69964477
  0
VERTEX
  8
contour_intermed
 10
286995.815375849
 20
6717418.92272053
  0
VERTEX
  8
contour_intermed
 10
286993.717531789
 20
6717420.04525581
  0
VERTEX
  8
contour_intermed
 10
286992.193653994
 20
6717421.44947552
  0
VERTEX
  8
contour_intermed
 10
286990.925674188
 20
6717423.17255711
  0
VERTEX
  8
contour_intermed
 10
286990.072962847
 20
6717425.00950026
  0
VERTEX
  8
contour_intermed
 10
286989.008197331
 20
6717426.97170125
  0
VERTEX
  8
contour_intermed
 10
286987.87500936
 20
6717428.58824173
  0
VERTEX
  8
contour_intermed
 10
286986.098835396
 20
6717429.94159174
  0
VERTEX
  8
contour_intermed
 10
286984.018170861
 20
6717431.03915266
  0
VERTEX
  8
contour_intermed
 10
286982.023770091
 20
6717432.04716719
  0
VERTEX
  8
contour_intermed
 10
286979.895537398
 20
6717432.95000609
  0
VERTEX
  8
contour_intermed
 10
286977.870992593
 20
6717433.69138896
  0
VERTEX
  8
contour_intermed
 10
286975.8493656
 20
6717434.16093769
  0
VERTEX
  8
contour_intermed
 10
286974.202741371
 20
6717434.28175441
  0
VERTEX
  8
contour_intermed
 10
286972.846195812
 20
6717434.23462798
  0
VERTEX
  8
contour_intermed
 10
286971.913377037
 20
6717434.06006494
  0
VERTEX
  8
contour_intermed
 10
286970.837680403
 20
6717434.14237525
  0
VERTEX
  8
contour_intermed
 10
286969.779579194
 20
6717434.20453618
  0
VERTEX
  8
contour_intermed
 10
286968.789614538
 20
6717434.35162108
  0
VERTEX
  8
contour_intermed
 10
286967.830548774
 20
6717434.52109888
  0
VERTEX
  8
contour_intermed
 10
286967
 20
6717434.7
  0
SEQEND
  0
POLYLINE
 66
1
  8
contour_intermed
  0
VERTEX
  8
contour_intermed
 10
286975.270945078
 20
6717462.05981077
  0
VERTEX
  8
contour_intermed
 10
286974.642684662
 20
6717462.98036958
  0
VERTEX
  8
contour_intermed
 10
286974.259234657
 20
6717463.9565973
  0
VERTEX
  8
contour_intermed
 10
286973.825570907
 20
6717465.26590747
  0
VERTEX
  8
contour_intermed
 10
286974.271205497
 20
6717466.43381259
  0
VERTEX
  8
contour_intermed
 10
286975.053204906
 20
6717467.25523385
  0
VERTEX
  8
contour_intermed
 10
286976.177696552
 20
6717467.32546568
  0
VERTEX
  8
contour_intermed
 10
286977.295720274
 20
6717466.61015906
  0
VERTEX
  8
contour_intermed
 10
286978.090038279
 20
6717465.09105468
  0
VERTEX
  8
contour_intermed
 10
286978.383612963
 20
6717463.31913647
  0
VERTEX
  8
contour_intermed
 10
286978.189649382
 20
6717461.8092709
  0
VERTEX
  8
contour_intermed
 10
286977.901237284
 20
6717460.847568
  0
VERTEX
  8
contour_intermed
 10
286977.445588898
 20
6717460.46407872
  0
VERTEX
  8
contour_intermed
 10
286976.792385144
 20
6717460.80919573
  0
VERTEX
  8
contour_intermed
 10
286976.046409143
 20
6717461.27825557
  0
VERTEX
  8
contour_intermed
 10
286975.270945078
 20
6717462.05981077
  0
SEQEND
  0
POLYLINE
 66
1
  8
contour_intermed
  0
VERTEX
  8
contour_intermed
 10
287285
 20
6717333.72
  0
VERTEX
  8
contour_intermed
 10
287281
 20
6717333.2947433
  0
VERTEX
  8
contour_intermed
 10
287277
 20
6717333.42001434
  0
VERTEX
  8
contour_intermed
 10
287273
 20
6717333.54683916
  0
VERTEX
  8
contour_intermed
 10
287269
 20
6717334.68297319
  0
VERTEX
  8
contour_intermed
 10
287264.9923932
 20
6717336.13264714
  0
VERTEX
  8
contour_intermed
 10
287260.947375906
 20
6717337.49424109
  0
VERTEX
  8
contour_intermed
 10
287256.818209535
 20
6717339.18853404
  0
VERTEX
  8
contour_intermed
 10
287252.977457344
 20
6717339.96255624
  0
VERTEX
  8
contour_intermed
 10
287249.144629079
 20
6717339.2625898
  0
VERTEX
  8
contour_intermed
 10
287245.317261076
 20
6717337.63255936
  0
VERTEX
  8
contour_intermed
 10
287241.825735333
 20
6717335.09015034
  0
VERTEX
  8
contour_intermed
 10
287238.684371595
 20
6717331.91004008
  0
VERTEX
  8
contour_intermed
 10
287236.238924281
 20
6717328.47704633
  0
VERTEX
  8
contour_intermed
 10
287234.432464573
 20
6717325.15899284
  0
VERTEX
  8
contour_intermed
 10
287233.616761947
 20
6717321.97441899
  0
VERTEX
  8
contour_intermed
 10
287233.421688695
 20
6717319.219075
  0
VERTEX
  8
contour_intermed
 10
287232.838874413
 20
6717317.64018263
  0
VERTEX
  8
contour_intermed
 10
287231.953902607
 20
6717316.79552947
  0
VERTEX
  8
contour_intermed
 10
287230.728915859
 20
6717315.90745652
  0
VERTEX
  8
contour_intermed
 10
287229.624271373
 20
6717315.13823678
  0
VERTEX
  8
contour_intermed
 10
287228.51498089
 20
6717314.39272721
  0
VERTEX
  8
contour_intermed
 10
287227.351833576
 20
6717313.57776365
  0
VERTEX
  8
contour_intermed
 10
287226.395754122
 20
6717312.79491629
  0
VERTEX
  8
contour_intermed
 10
287225.125655927
 20
6717311.99590136
  0
VERTEX
  8
contour_intermed
 10
287223.751713063
 20
6717311.49577048
  0
VERTEX
  8
contour_intermed
 10
287222.224398933
 20
6717310.91307147
  0
VERTEX
  8
contour_intermed
 10
287220.70754629
 20
6717310.45300117
  0
VERTEX
  8
contour_intermed
 10
287219.07032187
 20
6717310.23381851
  0
VERTEX
  8
contour_intermed
 10
287217.071035788
 20
6717310.03572798
  0
VERTEX
  8
contour_intermed
 10
287215.01637582
 20
6717310.04155631
  0
VERTEX
  8
contour_intermed
 10
287212.986668147
 20
6717310.2459635
  0
VERTEX
  8
contour_intermed
 10
287210.908786697
 20
6717310.51418357
  0
VERTEX
  8
contour_intermed
 10
287208.721903995
 20
6717311.08398554
  0
VERTEX
  8
contour_intermed
 10
287206.872812412
 20
6717311.83146583
  0
VERTEX
  8
contour_intermed
 10
287205.245904421
 20
6717312.99610342
  0
VERTEX
  8
contour_intermed
 10
287204.007567857
 20
6717314.45346241
  0
VERTEX
  8
contour_intermed
 10
287203.237467117
 20
6717316.24679533
  0
VERTEX
  8
contour_intermed
 10
287202.706502389
 20
6717318.24109927
  0
VERTEX
  8
contour_intermed
 10
287202.173444323
 20
6717320.14683327
  0
VERTEX
  8
contour_intermed
 10
287201.443980931
 20
6717322.12224099
  0
VERTEX
  8
contour_intermed
 10
287200.877138817
 20
6717324.09714683
  0
VERTEX
  8
contour_intermed
 10
287200.529778927
 20
6717326.14978943
  0
VERTEX
  8
contour_intermed
 10
287200.09510802
 20
6717328.224964
  0
VERTEX
  8
contour_intermed
 10
287199.441310802
 20
6717330.21995919
  0
VERTEX
  8
contour_intermed
 10
287198.409642936
 20
6717331.82502611
  0
VERTEX
  8
contour_intermed
 10
287196.984584286
 20
6717332.89123477
  0
VERTEX
  8
contour_intermed
 10
287195.300179341
 20
6717333.2396066
  0
VERTEX
  8
contour_intermed
 10
287193.591388835
 20
6717333.15852845
  0
VERTEX
  8
contour_intermed
 10
287192.11049607
 20
6717332.69924971
  0
VERTEX
  8
contour_intermed
 10
287190.640751174
 20
6717332.50937884
  0
VERTEX
  8
contour_intermed
 10
287189.030335037
 20
6717332.68315313
  0
VERTEX
  8
contour_intermed
 10
287187.080567872
 20
6717333.28773128
  0
VERTEX
  8
contour_intermed
 10
287185.009003459
 20
6717334.45789613
  0
VERTEX
  8
contour_intermed
 10
287182.933094522
 20
6717335.70946956
  0
VERTEX
  8
contour_intermed
 10
287180.840395076
 20
6717336.70676922
  0
VERTEX
  8
contour_intermed
 10
287179.021247233
 20
6717337.12874234
  0
VERTEX
  8
contour_intermed
 10
287177.298600302
 20
6717337.28757973
  0
VERTEX
  8
contour_intermed
 10
287175.782351328
 20
6717337.31783102
  0
VERTEX
  8
contour_intermed
 10
287174.376191352
 20
6717337.41033092
  0
VERTEX
  8
contour_intermed
 10
287172.903018383
 20
6717337.80476433
  0
VERTEX
  8
contour_intermed
 10
287171.310691576
 20
6717338.64382382
  0
VERTEX
  8
contour_intermed
 10
287169.057904301
 20
6717339.35670441
  0
VERTEX
  8
contour_intermed
 10
287166.768675844
 20
6717340.07126845
  0
VERTEX
  8
contour_intermed
 10
287164.295456157
 20
6717340.71961287
  0
VERTEX
  8
contour_intermed
 10
287161.696937042
 20
6717341.25364458
  0
VERTEX
  8
contour_intermed
 10
287159.192924779
 20
6717341.62794599
  0
VERTEX
  8
contour_intermed
 10
287156.859701173
 20
6717341.96225715
  0
VERTEX
  8
contour_intermed
 10
287154.947375906
 20
6717342.49050734
  0
VERTEX
  8
contour_intermed
 10
287152.9923932
 20
6717342.95689939
  0
VERTEX
  8
contour_intermed
 10
287151
 20
6717343.54786595
  0
VERTEX
  8
contour_intermed
 10
287149
 20
6717344.08366859
  0
VERTEX
  8
contour_intermed
 10
287147
 20
6717344.55441017
  0
VERTEX
  8
contour_intermed
 10
287145
 20
6717344.64028654
  0
VERTEX
  8
contour_intermed
 10
287143
 20
6717344.58268301
  0
VERTEX
  8
contour_intermed
 10
287141
 20
6717344.55342185
  0
VERTEX
  8
contour_intermed
 10
287138.998402572
 20
6717344.64229581
  0
VERTEX
  8
contour_intermed
 10
287136.990546368
 20
6717344.87231327
  0
VERTEX
  8
contour_intermed
 10
287134.972875062
 20
6717344.92731867
  0
VERTEX
  8
contour_intermed
 10
287133.032643326
 20
6717345.3855742
  0
VERTEX
  8
contour_intermed
 10
287131.028149696
 20
6717346.29997111
  0
VERTEX
  8
contour_intermed
 10
287129.012674564
 20
6717347.89983244
  0
VERTEX
  8
contour_intermed
 10
287127.108240582
 20
6717350.38327096
  0
VERTEX
  8
contour_intermed
 10
287125.335814703
 20
6717353.97085262
  0
VERTEX
  8
contour_intermed
 10
287123.485110459
 20
6717358.48582633
  0
VERTEX
  8
contour_intermed
 10
287121.697593115
 20
6717362.80172116
  0
VERTEX
  8
contour_intermed
 10
287119.483301611
 20
6717366.99830177
  0
VERTEX
  8
contour_intermed
 10
287117.182049617
 20
6717370.35869431
  0
VERTEX
  8
contour_intermed
 10
287114.621661324
 20
6717372.99354879
  0
VERTEX
  8
contour_intermed
 10
287112.064890246
 20
6717374.64719748
  0
VERTEX
  8
contour_intermed
 10
287110.185713753
 20
6717375.992568
  0
VERTEX
  8
contour_intermed
 10
287108.623728831
 20
6717377.52177804
  0
VERTEX
  8
contour_intermed
 10
287107.458950609
 20
6717378.78555525
  0
VERTEX
  8
contour_intermed
 10
287106.075123113
 20
6717380.18301068
  0
VERTEX
  8
contour_intermed
 10
287104.576181078
 20
6717381.16582976
  0
VERTEX
  8
contour_intermed
 10
287102.975969064
 20
6717382.15077664
  0
VERTEX
  8
contour_intermed
 10
287101.091593108
 20
6717382.90124993
  0
VERTEX
  8
contour_intermed
 10
287098.993697579
 20
6717383.42113263
  0
VERTEX
  8
contour_intermed
 10
287096.868512829
 20
6717383.67602806
  0
VERTEX
  8
contour_intermed
 10
287094.927430661
 20
6717383.64239635
  0
VERTEX
  8
contour_intermed
 10
287093.148275242
 20
6717383.4994258
  0
VERTEX
  8
contour_intermed
 10
287091.536567205
 20
6717383.26378498
  0
VERTEX
  8
contour_intermed
 10
287090.087596076
 20
6717382.98008526
  0
VERTEX
  8
contour_intermed
 10
287088.625630806
 20
6717382.8391207
  0
VERTEX
  8
contour_intermed
 10
287087.020338329
 20
6717383.06212872
  0
VERTEX
  8
contour_intermed
 10
287085.084186998
 20
6717383.40445703
  0
VERTEX
  8
contour_intermed
 10
287083.023813026
 20
6717383.86475976
  0
VERTEX
  8
contour_intermed
 10
287081.002738448
 20
6717384.2580506
  0
VERTEX
  8
contour_intermed
 10
287078.9961966
 20
6717384.60689991
  0
VERTEX
  8
contour_intermed
 10
287076.969884553
 20
6717384.92206845
  0
VERTEX
  8
contour_intermed
 10
287074.882792721
 20
6717385.52099692
  0
VERTEX
  8
contour_intermed
 10
287072.90353854
 20
6717386.23288772
  0
VERTEX
  8
contour_intermed
 10
287071.113404808
 20
6717387.24892898
  0
VERTEX
  8
contour_intermed
 10
287069.468200237
 20
6717388.65671366
  0
VERTEX
  8
contour_intermed
 10
287067.978189683
 20
6717390.42032044
  0
VERTEX
  8
contour_intermed
 10
287066.450778447
 20
6717392.33938211
  0
VERTEX
  8
contour_intermed
 10
287064.860159763
 20
6717393.81842504
  0
VERTEX
  8
contour_intermed
 10
287063.184958816
 20
6717394.80195986
  0
VERTEX
  8
contour_intermed
 10
287061.454698227
 20
6717395.3347289
  0
VERTEX
  8
contour_intermed
 10
287059.947754889
 20
6717395.40246023
  0
VERTEX
  8
contour_intermed
 10
287058.504667863
 20
6717395.5231768
  0
VERTEX
  8
contour_intermed
 10
287056.940364663
 20
6717395.96776498
  0
VERTEX
  8
contour_intermed
 10
287055.105228934
 20
6717396.58926436
  0
VERTEX
  8
contour_intermed
 10
287053.034617176
 20
6717397.30246226
  0
VERTEX
  8
contour_intermed
 10
287051.00456408
 20
6717397.56505631
  0
VERTEX
  8
contour_intermed
 10
287049
 20
6717397.91290405
  0
VERTEX
  8
contour_intermed
 10
287047
 20
6717398.4032805
  0
VERTEX
  8
contour_intermed
 10
287044.997870096
 20
6717398.84497115
  0
VERTEX
  8
contour_intermed
 10
287042.979788358
 20
6717399.68053876
  0
VERTEX
  8
contour_intermed
 10
287040.911209323
 20
6717400.78590163
  0
VERTEX
  8
contour_intermed
 10
287038.861962174
 20
6717402.47715142
  0
VERTEX
  8
contour_intermed
 10
287037.027142446
 20
6717404.23770608
  0
VERTEX
  8
contour_intermed
 10
287035.247508298
 20
6717406.01047684
  0
VERTEX
  8
contour_intermed
 10
287033.780787475
 20
6717407.87522356
  0
VERTEX
  8
contour_intermed
 10
287032.565063436
 20
6717409.37724845
  0
VERTEX
  8
contour_intermed
 10
287031.385618841
 20
6717410.67358235
  0
VERTEX
  8
contour_intermed
 10
287030.137508875
 20
6717411.78533013
  0
VERTEX
  8
contour_intermed
 10
287028.610208709
 20
6717413.0578333
  0
VERTEX
  8
contour_intermed
 10
287026.989160628
 20
6717414.41064377
  0
VERTEX
  8
contour_intermed
 10
287025.093831218
 20
6717415.64659376
  0
VERTEX
  8
contour_intermed
 10
287023.028764928
 20
6717417.0498105
  0
VERTEX
  8
contour_intermed
 10
287021.003575196
 20
6717418.58334029
  0
VERTEX
  8
contour_intermed
 10
287019
 20
6717420.05605438
  0
VERTEX
  8
contour_intermed
 10
287017
 20
6717421.48186308
  0
VERTEX
  8
contour_intermed
 10
287015
 20
6717422.75331203
  0
VERTEX
  8
contour_intermed
 10
287013
 20
6717423.88266806
  0
VERTEX
  8
contour_intermed
 10
287010.998402572
 20
6717424.64701722
  0
VERTEX
  8
contour_intermed
 10
287008.982939568
 20
6717425.12394914
  0
VERTEX
  8
contour_intermed
 10
287006.91408946
 20
6717425.62648981
  0
VERTEX
  8
contour_intermed
 10
287004.801153021
 20
6717426.33181876
  0
VERTEX
  8
contour_intermed
 10
287002.81649068
 20
6717427.17459848
  0
VERTEX
  8
contour_intermed
 10
287001.037289789
 20
6717428.42822673
  0
VERTEX
  8
contour_intermed
 10
286999.852342545
 20
6717430.08513245
  0
VERTEX
  8
contour_intermed
 10
286999.266743208
 20
6717431.7805715
  0
VERTEX
  8
contour_intermed
 10
286998.981831388
 20
6717433.28884144
  0
VERTEX
  8
contour_intermed
 10
286998.819629461
 20
6717434.46679726
  0
VERTEX
  8
contour_intermed
 10
286998.39445281
 20
6717435.73907552
  0
VERTEX
  8
contour_intermed
 10
286997.491232235
 20
6717436.84687021
  0
VERTEX
  8
contour_intermed
 10
286996.127036155
 20
6717438.1450949
  0
VERTEX
  8
contour_intermed
 10
286994.549061037
 20
6717439.29497315
  0
VERTEX
  8
contour_intermed
 10
286992.940089903
 20
6717440.2699289
  0
VERTEX
  8
contour_intermed
 10
286991.104472184
 20
6717441.04253328
  0
VERTEX
  8
contour_intermed
 10
286989.013055015
 20
6717441.58642084
  0
VERTEX
  8
contour_intermed
 10
286986.907109112
 20
6717442.32872766
  0
VERTEX
  8
contour_intermed
 10
286984.852964517
 20
6717442.91684196
  0
VERTEX
  8
contour_intermed
 10
286982.97078967
 20
6717443.55528277
  0
VERTEX
  8
contour_intermed
 10
286981.203335757
 20
6717444.24253227
  0
VERTEX
  8
contour_intermed
 10
286979.729874194
 20
6717444.94763919
  0
VERTEX
  8
contour_intermed
 10
286978.612377657
 20
6717445.64645163
  0
VERTEX
  8
contour_intermed
 10
286977.798515878
 20
6717446.21702884
  0
VERTEX
  8
contour_intermed
 10
286977.26221455
 20
6717446.49999089
  0
VERTEX
  8
contour_intermed
 10
286976.917907416
 20
6717446.84559631
  0
VERTEX
  8
contour_intermed
 10
286976.729769638
 20
6717447.12623896
  0
VERTEX
  8
contour_intermed
 10
286976.569818214
 20
6717447.7656736
  0
VERTEX
  8
contour_intermed
 10
286976.423369532
 20
6717448.76528577
  0
VERTEX
  8
contour_intermed
 10
286976.479144675
 20
6717449.94971299
  0
VERTEX
  8
contour_intermed
 10
286976.963249761
 20
6717451.11587091
  0
VERTEX
  8
contour_intermed
 10
286978.189688426
 20
6717451.65250658
  0
VERTEX
  8
contour_intermed
 10
286980.047948791
 20
6717451.88437902
  0
VERTEX
  8
contour_intermed
 10
286982.192139923
 20
6717451.78109002
  0
VERTEX
  8
contour_intermed
 10
286984.211608515
 20
6717451.77211882
  0
VERTEX
  8
contour_intermed
 10
286986.081679868
 20
6717451.92798541
  0
VERTEX
  8
contour_intermed
 10
286987.433289867
 20
6717452.66262575
  0
VERTEX
  8
contour_intermed
 10
286988.236209915
 20
6717453.84195813
  0
VERTEX
  8
contour_intermed
 10
286988.72591169
 20
6717455.14317425
  0
VERTEX
  8
contour_intermed
 10
286989.121100851
 20
6717456.39232221
  0
VERTEX
  8
contour_intermed
 10
286989.300806373
 20
6717457.68137542
  0
VERTEX
  8
contour_intermed
 10
286989.357381074
 20
6717459.07258996
  0
VERTEX
  8
contour_intermed
 10
286989.565548619
 20
6717460.44409659
  0
VERTEX
  8
contour_intermed
 10
286989.974053557
 20
6717461.90860824
  0
VERTEX
  8
contour_intermed
 10
286990.569960397
 20
6717463.37947399
  0
VERTEX
  8
contour_intermed
 10
286991.117201346
 20
6717464.85891918
  0
VERTEX
  8
contour_intermed
 10
286991.997865674
 20
6717465.98213433
  0
VERTEX
  8
contour_intermed
 10
286993.045379805
 20
6717466.93462019
  0
VERTEX
  8
contour_intermed
 10
286994.088324638
 20
6717467.89167536
  0
VERTEX
  8
contour_intermed
 10
286994.833826625
 20
6717469.14617337
  0
VERTEX
  8
contour_intermed
 10
286995.343732027
 20
6717470.63626797
  0
VERTEX
  8
contour_intermed
 10
286995.727936654
 20
6717472.25457359
  0
VERTEX
  8
contour_intermed
 10
286995.994600912
 20
6717474.01516412
  0
VERTEX
  8
contour_intermed
 10
286996.234711331
 20
6717475.89942428
  0
VERTEX
  8
contour_intermed
 10
286996.425579251
 20
6717477.93169676
  0
VERTEX
  8
contour_intermed
 10
286996.291856191
 20
6717479.97623056
  0
VERTEX
  8
contour_intermed
 10
286995.880397408
 20
6717482.06959617
  0
VERTEX
  8
contour_intermed
 10
286994.964712323
 20
6717483.65666651
  0
VERTEX
  8
contour_intermed
 10
286993.745927748
 20
6717484.54980085
  0
VERTEX
  8
contour_intermed
 10
286992.254756676
 20
6717484.5025701
  0
VERTEX
  8
contour_intermed
 10
286990.513010286
 20
6717484.18314065
  0
VERTEX
  8
contour_intermed
 10
286988.82265193
 20
6717484.18316344
  0
VERTEX
  8
contour_intermed
 10
286987.203336595
 20
6717484.73594516
  0
VERTEX
  8
contour_intermed
 10
286986.194943951
 20
6717486.09482217
  0
VERTEX
  8
contour_intermed
 10
286985.937498045
 20
6717487.72530412
  0
VERTEX
  8
contour_intermed
 10
286986.316485
 20
6717489.47679737
  0
VERTEX
  8
contour_intermed
 10
286986.933794428
 20
6717491.00640455
  0
VERTEX
  8
contour_intermed
 10
286987.560693346
 20
6717492.41580752
  0
VERTEX
  8
contour_intermed
 10
286988.145287968
 20
6717493.83471203
  0
VERTEX
  8
contour_intermed
 10
286988.972011516
 20
6717495.00798849
  0
VERTEX
  8
contour_intermed
 10
286990.088403607
 20
6717495.89159639
  0
VERTEX
  8
contour_intermed
 10
286991.28384135
 20
6717496.69615865
  0
VERTEX
  8
contour_intermed
 10
286992.517748841
 20
6717497.46225116
  0
VERTEX
  8
contour_intermed
 10
286993.542518999
 20
6717498.437481
  0
VERTEX
  8
contour_intermed
 10
286994.398962917
 20
6717499.58103708
  0
VERTEX
  8
contour_intermed
 10
286995.121325726
 20
6717500.85867428
  0
VERTEX
  8
contour_intermed
 10
286995.877609296
 20
6717502.1023907
  0
VERTEX
  8
contour_intermed
 10
286996.770201492
 20
6717503.20979851
  0
VERTEX
  8
contour_intermed
 10
286997.836380674
 20
6717504.14361933
  0
VERTEX
  8
contour_intermed
 10
286999.123081216
 20
6717504.85691878
  0
VERTEX
  8
contour_intermed
 10
287000.620940232
 20
6717505.35905977
  0
VERTEX
  8
contour_intermed
 10
287002.391016307
 20
6717505.5889837
  0
VERTEX
  8
contour_intermed
 10
287004.246690517
 20
6717505.73330948
  0
VERTEX
  8
contour_intermed
 10
287006.130074788
 20
6717505.84992521
  0
VERTEX
  8
contour_intermed
 10
287007.851718479
 20
6717506.12828152
  0
VERTEX
  8
contour_intermed
 10
287009.060594786
 20
6717506.91940521
  0
VERTEX
  8
contour_intermed
 10
287009.938029048
 20
6717508.04197095
  0
VERTEX
  8
contour_intermed
 10
287010.508569111
 20
6717509.47143089
  0
VERTEX
  8
contour_intermed
 10
287010.969950393
 20
6717511.01004961
  0
VERTEX
  8
contour_intermed
 10
287011.580439147
 20
6717512.39956085
  0
VERTEX
  8
contour_intermed
 10
287012.339306714
 20
6717513.64069329
  0
VERTEX
  8
contour_intermed
 10
287013.338565029
 20
6717514.64143497
  0
VERTEX
  8
contour_intermed
 10
287014.384863942
 20
6717515.59513606
  0
VERTEX
  8
contour_intermed
 10
287015.468713644
 20
6717516.51128636
  0
VERTEX
  8
contour_intermed
 10
287016.418759309
 20
6717517.56124069
  0
VERTEX
  8
contour_intermed
 10
287017.189656262
 20
6717518.79034374
  0
VERTEX
  8
contour_intermed
 10
287017.666647572
 20
6717520.31669942
  0
VERTEX
  8
contour_intermed
 10
287017.997270474
 20
6717522.01014394
  0
VERTEX
  8
contour_intermed
 10
287018.255291631
 20
6717523.83583916
  0
VERTEX
  8
contour_intermed
 10
287018.624216133
 20
6717525.47999541
  0
VERTEX
  8
contour_intermed
 10
287019.227635033
 20
6717526.73958547
  0
VERTEX
  8
contour_intermed
 10
287019.777766729
 20
6717527.93829947
  0
VERTEX
  8
contour_intermed
 10
287020.176791118
 20
6717528.92527424
  0
VERTEX
  8
contour_intermed
 10
287020.282228354
 20
6717529.92750487
  0
VERTEX
  8
contour_intermed
 10
287020.310496259
 20
6717530.80973595
  0
VERTEX
  8
contour_intermed
 10
287020.235232683
 20
6717531.78764176
  0
VERTEX
  8
contour_intermed
 10
287020.16549685
 20
6717532.86691733
  0
VERTEX
  8
contour_intermed
 10
287020.207831723
 20
6717533.93738004
  0
VERTEX
  8
contour_intermed
 10
287020.4
 20
6717535
  0
SEQEND
  0
POLYLINE
 66
1
  8
contour_intermed
  0
VERTEX
  8
contour_intermed
 10
287087.002460841
 20
6717313.96369489
  0
VERTEX
  8
contour_intermed
 10
287086.520899468
 20
6717314.95791236
  0
VERTEX
  8
contour_intermed
 10
287086.276071907
 20
6717315.93375809
  0
VERTEX
  8
contour_intermed
 10
287085.950546929
 20
6717317.04620389
  0
VERTEX
  8
contour_intermed
 10
287086.490761736
 20
6717317.99698405
  0
VERTEX
  8
contour_intermed
 10
287087.327512742
 20
6717318.8016021
  0
VERTEX
  8
contour_intermed
 10
287088.480449324
 20
6717319.36913971
  0
VERTEX
  8
contour_intermed
 10
287090.201498543
 20
6717319.52600631
  0
VERTEX
  8
contour_intermed
 10
287092.225504453
 20
6717319.07784183
  0
VERTEX
  8
contour_intermed
 10
287094.307912334
 20
6717318.11194361
  0
VERTEX
  8
contour_intermed
 10
287096.326660691
 20
6717316.83922706
  0
VERTEX
  8
contour_intermed
 10
287098.136577323
 20
6717315.20065446
  0
VERTEX
  8
contour_intermed
 10
287099.239494857
 20
6717313.42562524
  0
VERTEX
  8
contour_intermed
 10
287099.199183183
 20
6717312.01913272
  0
VERTEX
  8
contour_intermed
 10
287098.288424784
 20
6717310.96664783
  0
VERTEX
  8
contour_intermed
 10
287096.761898546
 20
6717310.22609061
  0
VERTEX
  8
contour_intermed
 10
287095.030301059
 20
6717309.65636046
  0
VERTEX
  8
contour_intermed
 10
287093.097716864
 20
6717309.46518611
  0
VERTEX
  8
contour_intermed
 10
287091.30207927
 20
6717309.56326548
  0
VERTEX
  8
contour_intermed
 10
287089.99458413
 20
6717309.76611764
  0
VERTEX
  8
contour_intermed
 10
287089.051880422
 20
6717310.21020995
  0
VERTEX
  8
contour_intermed
 10
287088.414413568
 20
6717310.95997368
  0
VERTEX
  8
contour_intermed
 10
287087.969484038
 20
6717311.98170141
  0
VERTEX
  8
contour_intermed
 10
287087.526775464
 20
6717312.95952029
  0
VERTEX
  8
contour_intermed
 10
287087.002460841
 20
6717313.96369489
  0
SEQEND
  0
POLYLINE
 66
1
  8
contour_intermed
  0
VERTEX
  8
contour_intermed
 10
287109.167653759
 20
6717304.12444757
  0
VERTEX
  8
contour_intermed
 10
287108.409193284
 20
6717305.10295
  0
VERTEX
  8
contour_intermed
 10
287107.926660197
 20
6717306.15099847
  0
VERTEX
  8
contour_intermed
 10
287107.468893747
 20
6717307.40682735
  0
VERTEX
  8
contour_intermed
 10
287107.85037084
 20
6717308.41993787
  0
VERTEX
  8
contour_intermed
 10
287108.717413271
 20
6717309.10155245
  0
VERTEX
  8
contour_intermed
 10
287110.337596615
 20
6717309.21101043
  0
VERTEX
  8
contour_intermed
 10
287112.115628666
 20
6717308.77274774
  0
VERTEX
  8
contour_intermed
 10
287113.928130084
 20
6717308.17947877
  0
VERTEX
  8
contour_intermed
 10
287115.517511384
 20
6717307.73473763
  0
VERTEX
  8
contour_intermed
 10
287117.128572865
 20
6717307.51609536
  0
VERTEX
  8
contour_intermed
 10
287118.750935467
 20
6717307.53037668
  0
VERTEX
  8
contour_intermed
 10
287120.138708178
 20
6717307.69435764
  0
VERTEX
  8
contour_intermed
 10
287121.970911169
 20
6717307.75715191
  0
VERTEX
  8
contour_intermed
 10
287123.717649776
 20
6717307.56936004
  0
VERTEX
  8
contour_intermed
 10
287125.447436068
 20
6717307.18598193
  0
VERTEX
  8
contour_intermed
 10
287126.638709556
 20
6717307.07523999
  0
VERTEX
  8
contour_intermed
 10
287128.325223466
 20
6717306.63400928
  0
VERTEX
  8
contour_intermed
 10
287130.296650292
 20
6717305.74406068
  0
VERTEX
  8
contour_intermed
 10
287132.486860272
 20
6717304.31406858
  0
VERTEX
  8
contour_intermed
 10
287134.406097217
 20
6717302.58438424
  0
VERTEX
  8
contour_intermed
 10
287135.449155991
 20
6717300.99132821
  0
VERTEX
  8
contour_intermed
 10
287135.774288065
 20
6717299.37474854
  0
VERTEX
  8
contour_intermed
 10
287134.819863198
 20
6717298.24806233
  0
VERTEX
  8
contour_intermed
 10
287133.385088112
 20
6717297.5499097
  0
VERTEX
  8
contour_intermed
 10
287131.604435326
 20
6717297.11197678
  0
VERTEX
  8
contour_intermed
 10
287130.044296302
 20
6717296.71862179
  0
VERTEX
  8
contour_intermed
 10
287128.571786885
 20
6717296.20101142
  0
VERTEX
  8
contour_intermed
 10
287126.983683732
 20
6717295.77436549
  0
VERTEX
  8
contour_intermed
 10
287125.089875682
 20
6717295.75138036
  0
VERTEX
  8
contour_intermed
 10
287122.997749135
 20
6717296.03393106
  0
VERTEX
  8
contour_intermed
 10
287120.880894006
 20
6717296.7176846
  0
VERTEX
  8
contour_intermed
 10
287118.882238328
 20
6717297.59880559
  0
VERTEX
  8
contour_intermed
 10
287117.0118867
 20
6717298.66698886
  0
VERTEX
  8
contour_intermed
 10
287115.327666876
 20
6717299.82933281
  0
VERTEX
  8
contour_intermed
 10
287113.961335204
 20
6717300.78177277
  0
VERTEX
  8
contour_intermed
 10
287112.872445988
 20
6717301.59725117
  0
VERTEX
  8
contour_intermed
 10
287111.912833736
 20
6717302.14047492
  0
VERTEX
  8
contour_intermed
 10
287111.006249615
 20
6717302.6492022
  0
VERTEX
  8
contour_intermed
 10
287110.070934951
 20
6717303.29155486
  0
VERTEX
  8
contour_intermed
 10
287109.167653759
 20
6717304.12444757
  0
SEQEND
  0
POLYLINE
 66
1
  8
contour_intermed
  0
VERTEX
  8
contour_intermed
 10
287146.974753883
 20
6717323.95617038
  0
VERTEX
  8
contour_intermed
 10
287146.546382696
 20
6717324.91857392
  0
VERTEX
  8
contour_intermed
 10
287146.240318562
 20
6717325.93045611
  0
VERTEX
  8
contour_intermed
 10
287145.815424461
 20
6717327.10000985
  0
VERTEX
  8
contour_intermed
 10
287146.082461511
 20
6717328.22729854
  0
VERTEX
  8
contour_intermed
 10
287146.942295817
 20
6717329.14116014
  0
VERTEX
  8
contour_intermed
 10
287148.246644726
 20
6717329.72592434
  0
VERTEX
  8
contour_intermed
 10
287149.968123695
 20
6717329.88717546
  0
VERTEX
  8
contour_intermed
 10
287151.785132425
 20
6717329.84819048
  0
VERTEX
  8
contour_intermed
 10
287153.892833408
 20
6717329.41917907
  0
VERTEX
  8
contour_intermed
 10
287155.838999046
 20
6717328.77204935
  0
VERTEX
  8
contour_intermed
 10
287157.732843377
 20
6717327.88695287
  0
VERTEX
  8
contour_intermed
 10
287159.473002064
 20
6717326.81014649
  0
VERTEX
  8
contour_intermed
 10
287161.500767197
 20
6717325.32346481
  0
VERTEX
  8
contour_intermed
 10
287163.172966576
 20
6717323.63391968
  0
VERTEX
  8
contour_intermed
 10
287164.460286979
 20
6717322.02515671
  0
VERTEX
  8
contour_intermed
 10
287165.510228237
 20
6717320.54660809
  0
VERTEX
  8
contour_intermed
 10
287165.691350282
 20
6717319.33274327
  0
VERTEX
  8
contour_intermed
 10
287165.05366357
 20
6717318.21652083
  0
VERTEX
  8
contour_intermed
 10
287163.216914777
 20
6717317.74144386
  0
VERTEX
  8
contour_intermed
 10
287161.11065953
 20
6717317.78844655
  0
VERTEX
  8
contour_intermed
 10
287158.999948872
 20
6717318.2040237
  0
VERTEX
  8
contour_intermed
 10
287156.899887129
 20
6717318.64724943
  0
VERTEX
  8
contour_intermed
 10
287154.848663048
 20
6717319.05905194
  0
VERTEX
  8
contour_intermed
 10
287152.939211279
 20
6717319.52051295
  0
VERTEX
  8
contour_intermed
 10
287151.172879536
 20
6717319.91770128
  0
VERTEX
  8
contour_intermed
 10
287149.809328049
 20
6717320.29874158
  0
VERTEX
  8
contour_intermed
 10
287148.858449492
 20
6717320.60740555
  0
VERTEX
  8
contour_intermed
 10
287148.23110712
 20
6717321.15257908
  0
VERTEX
  8
contour_intermed
 10
287147.844179333
 20
6717322.09585901
  0
VERTEX
  8
contour_intermed
 10
287147.419946512
 20
6717323.01418477
  0
VERTEX
  8
contour_intermed
 10
287146.974753883
 20
6717323.95617038
  0
SEQEND
  0
POLYLINE
 66
1
  8
contour_intermed
  0
VERTEX
  8
contour_intermed
 10
287236
 20
6717219
  0
VERTEX
  8
contour_intermed
 10
287234.588125792
 20
6717223.28697907
  0
VERTEX
  8
contour_intermed
 10
287232.552474746
 20
6717227.37040152
  0
VERTEX
  8
contour_intermed
 10
287229.995384233
 20
6717231.35085646
  0
VERTEX
  8
contour_intermed
 10
287227.306771577
 20
6717233.91329967
  0
VERTEX
  8
contour_intermed
 10
287224.984489299
 20
6717235.70964236
  0
VERTEX
  8
contour_intermed
 10
287223.511531102
 20
6717237.08632419
  0
VERTEX
  8
contour_intermed
 10
287222.137687102
 20
6717238.47196091
  0
VERTEX
  8
contour_intermed
 10
287220.654511952
 20
6717240.00531949
  0
VERTEX
  8
contour_intermed
 10
287218.980784766
 20
6717241.7675301
  0
VERTEX
  8
contour_intermed
 10
287217.175231002
 20
6717243.3206403
  0
VERTEX
  8
contour_intermed
 10
287215.165815095
 20
6717244.85177117
  0
VERTEX
  8
contour_intermed
 10
287213.277196745
 20
6717246.37311277
  0
VERTEX
  8
contour_intermed
 10
287211.353126278
 20
6717248.34486143
  0
VERTEX
  8
contour_intermed
 10
287209.297367235
 20
6717250.59638614
  0
VERTEX
  8
contour_intermed
 10
287207.196601927
 20
6717252.43018324
  0
VERTEX
  8
contour_intermed
 10
287204.948271907
 20
6717254.04171139
  0
VERTEX
  8
contour_intermed
 10
287202.967354357
 20
6717255.75012669
  0
VERTEX
  8
contour_intermed
 10
287200.951891353
 20
6717257.20939981
  0
VERTEX
  8
contour_intermed
 10
287198.84404281
 20
6717258.5284902
  0
VERTEX
  8
contour_intermed
 10
287196.954735942
 20
6717259.51810377
  0
VERTEX
  8
contour_intermed
 10
287195.188127167
 20
6717259.9069688
  0
VERTEX
  8
contour_intermed
 10
287193.611223489
 20
6717259.7509122
  0
VERTEX
  8
contour_intermed
 10
287192.183359135
 20
6717258.90212244
  0
VERTEX
  8
contour_intermed
 10
287190.706272768
 20
6717258.57009071
  0
VERTEX
  8
contour_intermed
 10
287189.073654106
 20
6717258.67823258
  0
VERTEX
  8
contour_intermed
 10
287187.07015904
 20
6717259.13907869
  0
VERTEX
  8
contour_intermed
 10
287185.016610259
 20
6717259.92869966
  0
VERTEX
  8
contour_intermed
 10
287183.00152136
 20
6717260.69925766
  0
VERTEX
  8
contour_intermed
 10
287181
 20
6717261.46411042
  0
VERTEX
  8
contour_intermed
 10
287179
 20
6717262.18207607
  0
VERTEX
  8
contour_intermed
 10
287177
 20
6717262.72377221
  0
VERTEX
  8
contour_intermed
 10
287175
 20
6717263.23001665
  0
VERTEX
  8
contour_intermed
 10
287173
 20
6717263.75785558
  0
VERTEX
  8
contour_intermed
 10
287170.996729076
 20
6717264.47495463
  0
VERTEX
  8
contour_intermed
 10
287168.973035764
 20
6717265.05339356
  0
VERTEX
  8
contour_intermed
 10
287166.889400191
 20
6717265.47223535
  0
VERTEX
  8
contour_intermed
 10
287164.869580145
 20
6717265.78721785
  0
VERTEX
  8
contour_intermed
 10
287162.994405459
 20
6717265.97225784
  0
VERTEX
  8
contour_intermed
 10
287161.25299567
 20
6717266.38030779
  0
VERTEX
  8
contour_intermed
 10
287159.803064647
 20
6717266.96023867
  0
VERTEX
  8
contour_intermed
 10
287158.713102731
 20
6717267.58445463
  0
VERTEX
  8
contour_intermed
 10
287157.894312923
 20
6717268.08492141
  0
VERTEX
  8
contour_intermed
 10
287157.247970039
 20
6717268.46612242
  0
VERTEX
  8
contour_intermed
 10
287156.715798881
 20
6717268.81659325
  0
VERTEX
  8
contour_intermed
 10
287156.381553046
 20
6717269.34161644
  0
VERTEX
  8
contour_intermed
 10
287156.065478235
 20
6717270.06831929
  0
VERTEX
  8
contour_intermed
 10
287155.682290206
 20
6717271.12682071
  0
VERTEX
  8
contour_intermed
 10
287155.434230099
 20
6717272.14491983
  0
VERTEX
  8
contour_intermed
 10
287155.247548021
 20
6717273.05365696
  0
VERTEX
  8
contour_intermed
 10
287155.136727961
 20
6717273.66986044
  0
VERTEX
  8
contour_intermed
 10
287154.902028602
 20
6717274.27328781
  0
VERTEX
  8
contour_intermed
 10
287154.606929827
 20
6717274.93910652
  0
VERTEX
  8
contour_intermed
 10
287154.529378422
 20
6717275.61589336
  0
VERTEX
  8
contour_intermed
 10
287154.509513254
 20
6717276.59527659
  0
VERTEX
  8
contour_intermed
 10
287154.825599217
 20
6717277.51991409
  0
VERTEX
  8
contour_intermed
 10
287155.4812025
 20
6717278.53020683
  0
VERTEX
  8
contour_intermed
 10
287156.587885046
 20
6717279.27397873
  0
VERTEX
  8
contour_intermed
 10
287157.934707155
 20
6717280.00752446
  0
VERTEX
  8
contour_intermed
 10
287159.308249915
 20
6717280.66665353
  0
VERTEX
  8
contour_intermed
 10
287160.853842099
 20
6717281.1261579
  0
VERTEX
  8
contour_intermed
 10
287162.492950595
 20
6717281.48704941
  0
VERTEX
  8
contour_intermed
 10
287164.096934329
 20
6717281.88306567
  0
VERTEX
  8
contour_intermed
 10
287165.676025553
 20
6717282.30397445
  0
VERTEX
  8
contour_intermed
 10
287167.360310423
 20
6717282.62623142
  0
VERTEX
  8
contour_intermed
 10
287169.145643047
 20
6717282.88067863
  0
VERTEX
  8
contour_intermed
 10
287171.079653688
 20
6717283.06405349
  0
VERTEX
  8
contour_intermed
 10
287172.749963525
 20
6717283.26506105
  0
VERTEX
  8
contour_intermed
 10
287174.547338737
 20
6717283.22958963
  0
VERTEX
  8
contour_intermed
 10
287176.296596019
 20
6717283.0489006
  0
VERTEX
  8
contour_intermed
 10
287178.042971247
 20
6717282.753276
  0
VERTEX
  8
contour_intermed
 10
287180.025359684
 20
6717282.35722377
  0
VERTEX
  8
contour_intermed
 10
287181.977834959
 20
6717282.03897344
  0
VERTEX
  8
contour_intermed
 10
287184.427361556
 20
6717281.57435416
  0
VERTEX
  8
contour_intermed
 10
287186.478289138
 20
6717281.26899024
  0
VERTEX
  8
contour_intermed
 10
287188.308004179
 20
6717280.65090496
  0
VERTEX
  8
contour_intermed
 10
287189.894107588
 20
6717279.96659593
  0
VERTEX
  8
contour_intermed
 10
287191.33925654
 20
6717278.92835173
  0
VERTEX
  8
contour_intermed
 10
287192.821015943
 20
6717277.2442595
  0
VERTEX
  8
contour_intermed
 10
287193.958084929
 20
6717274.66382343
  0
VERTEX
  8
contour_intermed
 10
287195.624962735
 20
6717271.81128774
  0
VERTEX
  8
contour_intermed
 10
287197.51607383
 20
6717269.44117663
  0
VERTEX
  8
contour_intermed
 10
287199.568176892
 20
6717267.92503791
  0
VERTEX
  8
contour_intermed
 10
287201.639044037
 20
6717268.27063102
  0
VERTEX
  8
contour_intermed
 10
287203.658799506
 20
6717269.99342263
  0
VERTEX
  8
contour_intermed
 10
287205.604590646
 20
6717272.15520514
  0
VERTEX
  8
contour_intermed
 10
287206.864040378
 20
6717273.49668646
  0
VERTEX
  8
contour_intermed
 10
287208.009521797
 20
6717274.09306989
  0
VERTEX
  8
contour_intermed
 10
287209.13599224
 20
6717274.85922136
  0
VERTEX
  8
contour_intermed
 10
287210.379738776
 20
6717275.60026123
  0
VERTEX
  8
contour_intermed
 10
287211.70736273
 20
6717276.27895091
  0
VERTEX
  8
contour_intermed
 10
287213.099586484
 20
6717276.92538467
  0
VERTEX
  8
contour_intermed
 10
287214.906886898
 20
6717277.23560766
  0
VERTEX
  8
contour_intermed
 10
287216.5178537
 20
6717277.53911751
  0
VERTEX
  8
contour_intermed
 10
287218.565700229
 20
6717277.42025079
  0
VERTEX
  8
contour_intermed
 10
287220.621668448
 20
6717277.2564765
  0
VERTEX
  8
contour_intermed
 10
287222.321342868
 20
6717276.70185176
  0
VERTEX
  8
contour_intermed
 10
287223.952334051
 20
6717275.68305655
  0
VERTEX
  8
contour_intermed
 10
287225.010790559
 20
6717274.52289288
  0
VERTEX
  8
contour_intermed
 10
287226.08465515
 20
6717272.95578839
  0
VERTEX
  8
contour_intermed
 10
287226.935751202
 20
6717271.3853018
  0
VERTEX
  8
contour_intermed
 10
287228.061457464
 20
6717269.93232535
  0
VERTEX
  8
contour_intermed
 10
287229.802848091
 20
6717268.99840688
  0
VERTEX
  8
contour_intermed
 10
287231.567644248
 20
6717268.63772339
  0
VERTEX
  8
contour_intermed
 10
287233.204020949
 20
6717268.74039969
  0
VERTEX
  8
contour_intermed
 10
287234.488236121
 20
6717269.38937454
  0
VERTEX
  8
contour_intermed
 10
287235.557721585
 20
6717270.3947699
  0
VERTEX
  8
contour_intermed
 10
287236.63557419
 20
6717271.34326529
  0
VERTEX
  8
contour_intermed
 10
287237.690565239
 20
6717272.30087083
  0
VERTEX
  8
contour_intermed
 10
287238.627459499
 20
6717273.40619788
  0
VERTEX
  8
contour_intermed
 10
287239.562390134
 20
6717274.59023216
  0
VERTEX
  8
contour_intermed
 10
287240.277312606
 20
6717275.73592447
  0
VERTEX
  8
contour_intermed
 10
287241.338269358
 20
6717276.43031002
  0
VERTEX
  8
contour_intermed
 10
287242.50994391
 20
6717276.81638827
  0
VERTEX
  8
contour_intermed
 10
287244.08221321
 20
6717276.66048487
  0
VERTEX
  8
contour_intermed
 10
287246.003011617
 20
6717276.22695194
  0
VERTEX
  8
contour_intermed
 10
287248.000192728
 20
6717275.89725508
  0
VERTEX
  8
contour_intermed
 10
287250.295284386
 20
6717275.7336623
  0
VERTEX
  8
contour_intermed
 10
287252.359480952
 20
6717275.8749949
  0
VERTEX
  8
contour_intermed
 10
287254.340498664
 20
6717275.68883311
  0
VERTEX
  8
contour_intermed
 10
287256.285226805
 20
6717275.23796771
  0
VERTEX
  8
contour_intermed
 10
287258.097957625
 20
6717274.56656851
  0
VERTEX
  8
contour_intermed
 10
287259.909165589
 20
6717273.64572287
  0
VERTEX
  8
contour_intermed
 10
287261.296708603
 20
6717273.2812354
  0
VERTEX
  8
contour_intermed
 10
287262.541443268
 20
6717273.5207437
  0
VERTEX
  8
contour_intermed
 10
287263.703171547
 20
6717274.37289465
  0
VERTEX
  8
contour_intermed
 10
287264.969654071
 20
6717275.0553687
  0
VERTEX
  8
contour_intermed
 10
287266.375165223
 20
6717275.06281659
  0
VERTEX
  8
contour_intermed
 10
287267.899169202
 20
6717274.34565567
  0
VERTEX
  8
contour_intermed
 10
287269.694485392
 20
6717272.89302573
  0
VERTEX
  8
contour_intermed
 10
287271.737113879
 20
6717271.11936114
  0
VERTEX
  8
contour_intermed
 10
287273.85925422
 20
6717269.46706964
  0
VERTEX
  8
contour_intermed
 10
287275.961211845
 20
6717268.34862722
  0
VERTEX
  8
contour_intermed
 10
287277.768895366
 20
6717267.75879122
  0
VERTEX
  8
contour_intermed
 10
287279.116408018
 20
6717267.5833639
  0
VERTEX
  8
contour_intermed
 10
287280.195296743
 20
6717267.44750256
  0
VERTEX
  8
contour_intermed
 10
287280.990546749
 20
6717267.20305588
  0
VERTEX
  8
contour_intermed
 10
287282.071293353
 20
6717266.56246516
  0
VERTEX
  8
contour_intermed
 10
287283.38602243
 20
6717265.74356001
  0
VERTEX
  8
contour_intermed
 10
287285
 20
6717264.66
  0
SEQEND
  0
POLYLINE
 66
1
  8
contour
  0
VERTEX
  8
contour
 10
287285
 20
6717368.2
  0
VERTEX
  8
contour
 10
287283.937848733
 20
6717368.68765427
  0
VERTEX
  8
contour
 10
287282.999585084
 20
6717369.09015602
  0
VERTEX
  8
contour
 10
287282.108729188
 20
6717369.47292787
  0
VERTEX
  8
contour
 10
287281.161853554
 20
6717369.83329267
  0
VERTEX
  8
contour
 10
287279.926726086
 20
6717370.56804899
  0
VERTEX
  8
contour
 10
287278.45170656
 20
6717371.37736312
  0
VERTEX
  8
contour
 10
287276.871868329
 20
6717372.40665753
  0
VERTEX
  8
contour
 10
287275.128364705
 20
6717373.33300752
  0
VERTEX
  8
contour
 10
287273.0458715
 20
6717374.24601867
  0
VERTEX
  8
contour
 10
287271.00646578
 20
6717375.18244078
  0
VERTEX
  8
contour
 10
287269
 20
6717375.97955932
  0
VERTEX
  8
contour
 10
287267
 20
6717376.89055581
  0
VERTEX
  8
contour
 10
287265
 20
6717378.02517588
  0
VERTEX
  8
contour
 10
287263
 20
6717379.41227658
  0
VERTEX
  8
contour
 10
287261
 20
6717380.62009879
  0
VERTEX
  8
contour
 10
287259
 20
6717381.46878325
  0
VERTEX
  8
contour
 10
287257
 20
6717381.83482531
  0
VERTEX
  8
contour
 10
287255
 20
6717381.90063692
  0
VERTEX
  8
contour
 10
287252.993458152
 20
6717381.62635085
  0
VERTEX
  8
contour
 10
287250.949266383
 20
6717381.42799348
  0
VERTEX
  8
contour
 10
287248.802575997
 20
6717381.82309884
  0
VERTEX
  8
contour
 10
287246.83188187
 20
6717382.61560027
  0
VERTEX
  8
contour
 10
287245.079793394
 20
6717383.40146469
  0
VERTEX
  8
contour
 10
287243.624265597
 20
6717383.93654148
  0
VERTEX
  8
contour
 10
287242.654921349
 20
6717384.04644811
  0
VERTEX
  8
contour
 10
287241.883016343
 20
6717383.84240822
  0
VERTEX
  8
contour
 10
287241.116526934
 20
6717383.49095421
  0
VERTEX
  8
contour
 10
287240.240407225
 20
6717383.55254861
  0
VERTEX
  8
contour
 10
287239.096279004
 20
6717384.25785491
  0
VERTEX
  8
contour
 10
287237.890184752
 20
6717385.02287853
  0
VERTEX
  8
contour
 10
287236.473276293
 20
6717385.53057059
  0
VERTEX
  8
contour
 10
287234.88681694
 20
6717385.99471311
  0
VERTEX
  8
contour
 10
287233.126571211
 20
6717386.55674166
  0
VERTEX
  8
contour
 10
287231.044520981
 20
6717387.0148975
  0
VERTEX
  8
contour
 10
287229.006237576
 20
6717387.39300911
  0
VERTEX
  8
contour
 10
287227.005476896
 20
6717387.76855708
  0
VERTEX
  8
contour
 10
287225.029293663
 20
6717388.66847033
  0
VERTEX
  8
contour
 10
287223.070358957
 20
6717390.09190474
  0
VERTEX
  8
contour
 10
287220.78799831
 20
6717391.4294638
  0
VERTEX
  8
contour
 10
287218.716697058
 20
6717392.00787268
  0
VERTEX
  8
contour
 10
287216.409406715
 20
6717391.03382477
  0
VERTEX
  8
contour
 10
287214.204809756
 20
6717388.45695798
  0
VERTEX
  8
contour
 10
287213.024102956
 20
6717384.97611851
  0
VERTEX
  8
contour
 10
287212.515363911
 20
6717381.25197934
  0
VERTEX
  8
contour
 10
287213.545279061
 20
6717378.17646713
  0
VERTEX
  8
contour
 10
287215.257324064
 20
6717376.0788028
  0
VERTEX
  8
contour
 10
287217.784648736
 20
6717374.23825802
  0
VERTEX
  8
contour
 10
287220.546486675
 20
6717372.45172255
  0
VERTEX
  8
contour
 10
287222.525272528
 20
6717370.31610157
  0
VERTEX
  8
contour
 10
287224.070534907
 20
6717367.72037662
  0
VERTEX
  8
contour
 10
287224.896328026
 20
6717365.47028095
  0
VERTEX
  8
contour
 10
287224.905982298
 20
6717363.82219616
  0
VERTEX
  8
contour
 10
287224.269372244
 20
6717363.00541334
  0
VERTEX
  8
contour
 10
287222.899224965
 20
6717362.8140604
  0
VERTEX
  8
contour
 10
287220.954735288
 20
6717363.39600898
  0
VERTEX
  8
contour
 10
287218.369349625
 20
6717365.05433486
  0
VERTEX
  8
contour
 10
287214.764233065
 20
6717367.26685971
  0
VERTEX
  8
contour
 10
287210.79643622
 20
6717369.45936326
  0
VERTEX
  8
contour
 10
287206.969377698
 20
6717371.20442116
  0
VERTEX
  8
contour
 10
287203.771918944
 20
6717371.92019058
  0
VERTEX
  8
contour
 10
287201.493485791
 20
6717371.63349805
  0
VERTEX
  8
contour
 10
287200.127059517
 20
6717370.73973631
  0
VERTEX
  8
contour
 10
287199.316563821
 20
6717369.84837694
  0
VERTEX
  8
contour
 10
287198.254133553
 20
6717369.19994252
  0
VERTEX
  8
contour
 10
287196.428524313
 20
6717368.90552973
  0
VERTEX
  8
contour
 10
287193.507205996
 20
6717368.57304012
  0
VERTEX
  8
contour
 10
287189.994025596
 20
6717367.44906995
  0
VERTEX
  8
contour
 10
287187.102489569
 20
6717366.04044629
  0
VERTEX
  8
contour
 10
287185.520826649
 20
6717363.53544926
  0
VERTEX
  8
contour
 10
287186.076417096
 20
6717360.8613534
  0
VERTEX
  8
contour
 10
287188.299410352
 20
6717358.73479284
  0
VERTEX
  8
contour
 10
287191.354287866
 20
6717357.5224872
  0
VERTEX
  8
contour
 10
287193.588140537
 20
6717357.39310792
  0
VERTEX
  8
contour
 10
287194.826051059
 20
6717357.10533533
  0
VERTEX
  8
contour
 10
287196.115726369
 20
6717357.24475885
  0
VERTEX
  8
contour
 10
287197.93848485
 20
6717357.0211004
  0
VERTEX
  8
contour
 10
287199.79061787
 20
6717356.50549926
  0
VERTEX
  8
contour
 10
287201.616639336
 20
6717356.05710073
  0
VERTEX
  8
contour
 10
287203.738816663
 20
6717355.41638387
  0
VERTEX
  8
contour
 10
287205.625919276
 20
6717354.82446997
  0
VERTEX
  8
contour
 10
287207.749514439
 20
6717353.9721377
  0
VERTEX
  8
contour
 10
287209.849211771
 20
6717353.25783306
  0
VERTEX
  8
contour
 10
287212.198291664
 20
6717352.57357915
  0
VERTEX
  8
contour
 10
287214.830825505
 20
6717351.74620676
  0
VERTEX
  8
contour
 10
287216.934850884
 20
6717350.99554378
  0
VERTEX
  8
contour
 10
287218.624946556
 20
6717350.11316312
  0
VERTEX
  8
contour
 10
287219.151372079
 20
6717349.18686013
  0
VERTEX
  8
contour
 10
287218.711968084
 20
6717348.29103196
  0
VERTEX
  8
contour
 10
287217.456397329
 20
6717347.36552749
  0
VERTEX
  8
contour
 10
287215.837757074
 20
6717346.88907861
  0
VERTEX
  8
contour
 10
287214.553211253
 20
6717346.35780594
  0
VERTEX
  8
contour
 10
287213.434927073
 20
6717345.56989698
  0
VERTEX
  8
contour
 10
287212.446887669
 20
6717344.68999852
  0
VERTEX
  8
contour
 10
287211.103416954
 20
6717343.86331661
  0
VERTEX
  8
contour
 10
287209.69945932
 20
6717343.40062116
  0
VERTEX
  8
contour
 10
287208.167590501
 20
6717342.86941814
  0
VERTEX
  8
contour
 10
287206.661880914
 20
6717342.44113942
  0
VERTEX
  8
contour
 10
287205.040331745
 20
6717342.0399622
  0
VERTEX
  8
contour
 10
287203.078926514
 20
6717341.78626291
  0
VERTEX
  8
contour
 10
287201.021111988
 20
6717341.9440734
  0
VERTEX
  8
contour
 10
287199.00228204
 20
6717342.30319143
  0
VERTEX
  8
contour
 10
287197
 20
6717342.91713101
  0
VERTEX
  8
contour
 10
287195
 20
6717343.50347373
  0
VERTEX
  8
contour
 10
287193
 20
6717343.82060121
  0
VERTEX
  8
contour
 10
287191
 20
6717343.80857517
  0
VERTEX
  8
contour
 10
287189
 20
6717343.44517779
  0
VERTEX
  8
contour
 10
287187
 20
6717343.20583651
  0
VERTEX
  8
contour
 10
287185
 20
6717343.30895195
  0
VERTEX
  8
contour
 10
287183
 20
6717343.90977358
  0
VERTEX
  8
contour
 10
287181
 20
6717344.86112132
  0
VERTEX
  8
contour
 10
287179.0076068
 20
6717346.00269279
  0
VERTEX
  8
contour
 10
287177.048592489
 20
6717347.2800559
  0
VERTEX
  8
contour
 10
287175.147053575
 20
6717347.85046642
  0
VERTEX
  8
contour
 10
287172.863085949
 20
6717348.46026405
  0
VERTEX
  8
contour
 10
287170.552281394
 20
6717349.14986268
  0
VERTEX
  8
contour
 10
287168.221973826
 20
6717350.94267687
  0
VERTEX
  8
contour
 10
287165.931945402
 20
6717354.17773703
  0
VERTEX
  8
contour
 10
287164.298239929
 20
6717358.4778052
  0
VERTEX
  8
contour
 10
287163.755161721
 20
6717364.06910334
  0
VERTEX
  8
contour
 10
287163.932030474
 20
6717369.49883726
  0
VERTEX
  8
contour
 10
287164.33727923
 20
6717374.30995247
  0
VERTEX
  8
contour
 10
287164.099432894
 20
6717378.13560852
  0
VERTEX
  8
contour
 10
287162.83735357
 20
6717380.99637532
  0
VERTEX
  8
contour
 10
287160.46768487
 20
6717383.57261785
  0
VERTEX
  8
contour
 10
287157.062312967
 20
6717386.22044111
  0
VERTEX
  8
contour
 10
287153.888457681
 20
6717389.06707291
  0
VERTEX
  8
contour
 10
287151.050267844
 20
6717392.12457132
  0
VERTEX
  8
contour
 10
287148.80707708
 20
6717394.80011005
  0
VERTEX
  8
contour
 10
287146.937258862
 20
6717396.68277157
  0
VERTEX
  8
contour
 10
287144.969930693
 20
6717397.47631171
  0
VERTEX
  8
contour
 10
287142.904751004
 20
6717397.50993808
  0
VERTEX
  8
contour
 10
287140.874526678
 20
6717397.37785889
  0
VERTEX
  8
contour
 10
287139.067106602
 20
6717397.31659992
  0
VERTEX
  8
contour
 10
287137.360904864
 20
6717397.22224033
  0
VERTEX
  8
contour
 10
287135.782264544
 20
6717397.13426756
  0
VERTEX
  8
contour
 10
287134.376338704
 20
6717396.99803524
  0
VERTEX
  8
contour
 10
287133.03542531
 20
6717396.84928539
  0
VERTEX
  8
contour
 10
287131.591941158
 20
6717396.90248831
  0
VERTEX
  8
contour
 10
287130.053542169
 20
6717396.97325263
  0
VERTEX
  8
contour
 10
287128.570245891
 20
6717397.25913601
  0
VERTEX
  8
contour
 10
287126.980351496
 20
6717397.71618216
  0
VERTEX
  8
contour
 10
287125.094707966
 20
6717398.41177353
  0
VERTEX
  8
contour
 10
287123.029215101
 20
6717399.15439278
  0
VERTEX
  8
contour
 10
287121.003651264
 20
6717399.58470081
  0
VERTEX
  8
contour
 10
287118.996500872
 20
6717399.71241829
  0
VERTEX
  8
contour
 10
287116.971685245
 20
6717399.67045509
  0
VERTEX
  8
contour
 10
287114.887959376
 20
6717399.5367004
  0
VERTEX
  8
contour
 10
287112.896712219
 20
6717399.38206859
  0
VERTEX
  8
contour
 10
287111.103441827
 20
6717399.24523918
  0
VERTEX
  8
contour
 10
287109.452578887
 20
6717399.09276255
  0
VERTEX
  8
contour
 10
287107.976059235
 20
6717399.01987348
  0
VERTEX
  8
contour
 10
287106.50068548
 20
6717398.84356719
  0
VERTEX
  8
contour
 10
287104.811234662
 20
6717398.90596995
  0
VERTEX
  8
contour
 10
287102.876340771
 20
6717399.06261198
  0
VERTEX
  8
contour
 10
287101.019718112
 20
6717399.07424921
  0
VERTEX
  8
contour
 10
287099.464719512
 20
6717398.9079524
  0
VERTEX
  8
contour
 10
287098.415326837
 20
6717398.33875188
  0
VERTEX
  8
contour
 10
287097.696681612
 20
6717397.40739904
  0
VERTEX
  8
contour
 10
287096.958443858
 20
6717396.10304803
  0
VERTEX
  8
contour
 10
287096.075453174
 20
6717394.95825004
  0
VERTEX
  8
contour
 10
287094.867028391
 20
6717394.09983175
  0
VERTEX
  8
contour
 10
287093.539031276
 20
6717393.32136482
  0
VERTEX
  8
contour
 10
287092.116307038
 20
6717392.64118927
  0
VERTEX
  8
contour
 10
287090.599492779
 20
6717392.15835535
  0
VERTEX
  8
contour
 10
287088.989830484
 20
6717391.90696938
  0
VERTEX
  8
contour
 10
287087.087249371
 20
6717391.94726831
  0
VERTEX
  8
contour
 10
287084.982304837
 20
6717392.28876283
  0
VERTEX
  8
contour
 10
287082.818932907
 20
6717392.82167437
  0
VERTEX
  8
contour
 10
287080.814787462
 20
6717393.30565948
  0
VERTEX
  8
contour
 10
287079.097984361
 20
6717393.89842827
  0
VERTEX
  8
contour
 10
287077.728696406
 20
6717394.82567888
  0
VERTEX
  8
contour
 10
287076.676002331
 20
6717396.18798326
  0
VERTEX
  8
contour
 10
287075.750712658
 20
6717397.96272885
  0
VERTEX
  8
contour
 10
287074.667503364
 20
6717399.81815372
  0
VERTEX
  8
contour
 10
287073.084884398
 20
6717401.4643021
  0
VERTEX
  8
contour
 10
287071.099897195
 20
6717402.56837134
  0
VERTEX
  8
contour
 10
287068.985245302
 20
6717403.18726163
  0
VERTEX
  8
contour
 10
287066.852176116
 20
6717403.4290923
  0
VERTEX
  8
contour
 10
287064.947909622
 20
6717403.61412643
  0
VERTEX
  8
contour
 10
287063.178164185
 20
6717403.58947163
  0
VERTEX
  8
contour
 10
287061.592559418
 20
6717403.36775575
  0
VERTEX
  8
contour
 10
287060.15941837
 20
6717402.94820849
  0
VERTEX
  8
contour
 10
287058.686112278
 20
6717402.58257822
  0
VERTEX
  8
contour
 10
287057.060325162
 20
6717402.32831521
  0
VERTEX
  8
contour
 10
287055.07366603
 20
6717402.32061453
  0
VERTEX
  8
contour
 10
287053.018410951
 20
6717402.42979412
  0
VERTEX
  8
contour
 10
287051.001825632
 20
6717402.82802363
  0
VERTEX
  8
contour
 10
287048.996500872
 20
6717403.51949251
  0
VERTEX
  8
contour
 10
287046.971685245
 20
6717404.23432799
  0
VERTEX
  8
contour
 10
287044.887959376
 20
6717405.05380503
  0
VERTEX
  8
contour
 10
287042.896712219
 20
6717405.9385609
  0
VERTEX
  8
contour
 10
287041.103441827
 20
6717406.94446595
  0
VERTEX
  8
contour
 10
287039.452578887
 20
6717408.06495465
  0
VERTEX
  8
contour
 10
287037.973777195
 20
6717409.38722374
  0
VERTEX
  8
contour
 10
287036.486419612
 20
6717410.85225643
  0
VERTEX
  8
contour
 10
287034.764864233
 20
6717412.11121337
  0
VERTEX
  8
contour
 10
287032.89334993
 20
6717412.76663882
  0
VERTEX
  8
contour
 10
287031.041891661
 20
6717413.57546619
  0
VERTEX
  8
contour
 10
287029.651785722
 20
6717414.74088794
  0
VERTEX
  8
contour
 10
287028.810914441
 20
6717416.13714733
  0
VERTEX
  8
contour
 10
287028.223117643
 20
6717417.70360488
  0
VERTEX
  8
contour
 10
287027.649221592
 20
6717419.58138901
  0
VERTEX
  8
contour
 10
287026.600205355
 20
6717421.422958
  0
VERTEX
  8
contour
 10
287025.044494156
 20
6717422.84835534
  0
VERTEX
  8
contour
 10
287023.129686572
 20
6717424.19328256
  0
VERTEX
  8
contour
 10
287021.034471275
 20
6717425.36059025
  0
VERTEX
  8
contour
 10
287018.982475678
 20
6717426.51763192
  0
VERTEX
  8
contour
 10
287016.906042668
 20
6717427.37101934
  0
VERTEX
  8
contour
 10
287014.870538058
 20
6717428.46853378
  0
VERTEX
  8
contour
 10
287013.047459405
 20
6717429.66093146
  0
VERTEX
  8
contour
 10
287011.295880634
 20
6717430.58502689
  0
VERTEX
  8
contour
 10
287009.759163253
 20
6717431.85098317
  0
VERTEX
  8
contour
 10
287008.482965631
 20
6717433.32817864
  0
VERTEX
  8
contour
 10
287007.129363021
 20
6717434.78368255
  0
VERTEX
  8
contour
 10
287005.934185838
 20
6717436.20524197
  0
VERTEX
  8
contour
 10
287004.586520466
 20
6717437.57130718
  0
VERTEX
  8
contour
 10
287003.351394897
 20
6717438.69328148
  0
VERTEX
  8
contour
 10
287002.157571063
 20
6717439.34685957
  0
VERTEX
  8
contour
 10
287000.970486907
 20
6717439.670593
  0
VERTEX
  8
contour
 10
287000.123339991
 20
6717440.10139718
  0
VERTEX
  8
contour
 10
286999.203966191
 20
6717440.6051428
  0
VERTEX
  8
contour
 10
286998.65291909
 20
6717440.96661663
  0
VERTEX
  8
contour
 10
286998.079319926
 20
6717441.45466231
  0
VERTEX
  8
contour
 10
286997.447147961
 20
6717442.0520233
  0
VERTEX
  8
contour
 10
286996.873548482
 20
6717442.61704751
  0
VERTEX
  8
contour
 10
286996.545126286
 20
6717443.02931852
  0
VERTEX
  8
contour
 10
286996.622454923
 20
6717443.39854962
  0
VERTEX
  8
contour
 10
286996.879795542
 20
6717444.01135203
  0
VERTEX
  8
contour
 10
286997.254199865
 20
6717445.00978799
  0
VERTEX
  8
contour
 10
286997.614605029
 20
6717446.3498296
  0
VERTEX
  8
contour
 10
286997.835896692
 20
6717448.04151641
  0
VERTEX
  8
contour
 10
286997.895808329
 20
6717450.05362605
  0
VERTEX
  8
contour
 10
286998.133508945
 20
6717451.84261159
  0
VERTEX
  8
contour
 10
286998.485752129
 20
6717453.49424787
  0
VERTEX
  8
contour
 10
286999.189777829
 20
6717454.79022217
  0
VERTEX
  8
contour
 10
287000.072247907
 20
6717455.90775209
  0
VERTEX
  8
contour
 10
287001.066286992
 20
6717456.91371301
  0
VERTEX
  8
contour
 10
287002.07895743
 20
6717457.90104257
  0
VERTEX
  8
contour
 10
287002.752043112
 20
6717459.22795689
  0
VERTEX
  8
contour
 10
287003.296103238
 20
6717460.68389676
  0
VERTEX
  8
contour
 10
287003.798865499
 20
6717462.18752421
  0
VERTEX
  8
contour
 10
287004.455117086
 20
6717463.57030424
  0
VERTEX
  8
contour
 10
287005.083082037
 20
6717465.05804181
  0
VERTEX
  8
contour
 10
287005.569164937
 20
6717466.4492728
  0
VERTEX
  8
contour
 10
287006.011876807
 20
6717467.77003304
  0
VERTEX
  8
contour
 10
287006.356007221
 20
6717468.99410522
  0
VERTEX
  8
contour
 10
287006.462938274
 20
6717470.30976183
  0
VERTEX
  8
contour
 10
287006.23676328
 20
6717472.01680346
  0
VERTEX
  8
contour
 10
287006.034181358
 20
6717473.85883559
  0
VERTEX
  8
contour
 10
287006.327714056
 20
6717475.58563389
  0
VERTEX
  8
contour
 10
287007.186749224
 20
6717476.77844121
  0
VERTEX
  8
contour
 10
287008.354767399
 20
6717477.62401551
  0
VERTEX
  8
contour
 10
287009.586276002
 20
6717478.393724
  0
VERTEX
  8
contour
 10
287010.762475029
 20
6717479.21752497
  0
VERTEX
  8
contour
 10
287011.986934538
 20
6717479.99306546
  0
VERTEX
  8
contour
 10
287013.182176961
 20
6717480.79782304
  0
VERTEX
  8
contour
 10
287014.463967136
 20
6717481.51603287
  0
VERTEX
  8
contour
 10
287015.848745032
 20
6717482.13125497
  0
VERTEX
  8
contour
 10
287017.199606183
 20
6717482.78039382
  0
VERTEX
  8
contour
 10
287018.538145875
 20
6717483.44185413
  0
VERTEX
  8
contour
 10
287019.821029394
 20
6717484.15897061
  0
VERTEX
  8
contour
 10
287020.923053766
 20
6717485.05694623
  0
VERTEX
  8
contour
 10
287021.944585819
 20
6717486.03541418
  0
VERTEX
  8
contour
 10
287022.925109896
 20
6717487.0548901
  0
VERTEX
  8
contour
 10
287023.793056268
 20
6717488.18694373
  0
VERTEX
  8
contour
 10
287024.561178026
 20
6717489.41882197
  0
VERTEX
  8
contour
 10
287025.114884877
 20
6717490.86511512
  0
VERTEX
  8
contour
 10
287025.711521487
 20
6717492.26847851
  0
VERTEX
  8
contour
 10
287026.329143527
 20
6717493.65085647
  0
VERTEX
  8
contour
 10
287027.081274652
 20
6717494.89872535
  0
VERTEX
  8
contour
 10
287028.088392014
 20
6717495.89160798
  0
VERTEX
  8
contour
 10
287029.189629583
 20
6717496.79037042
  0
VERTEX
  8
contour
 10
287030.306580751
 20
6717497.67341925
  0
VERTEX
  8
contour
 10
287031.140081803
 20
6717498.8399182
  0
VERTEX
  8
contour
 10
287031.960388052
 20
6717500.01961195
  0
VERTEX
  8
contour
 10
287032.658618935
 20
6717501.32138106
  0
VERTEX
  8
contour
 10
287033.343420151
 20
6717502.63657985
  0
VERTEX
  8
contour
 10
287034.019119418
 20
6717503.96088058
  0
VERTEX
  8
contour
 10
287034.642329521
 20
6717505.33767048
  0
VERTEX
  8
contour
 10
287035.187628949
 20
6717506.79237105
  0
VERTEX
  8
contour
 10
287035.479772282
 20
6717508.50022772
  0
VERTEX
  8
contour
 10
287035.618161936
 20
6717510.36183806
  0
VERTEX
  8
contour
 10
287035.75187436
 20
6717512.22812564
  0
VERTEX
  8
contour
 10
287035.961316208
 20
6717514.02050942
  0
VERTEX
  8
contour
 10
287036.225922471
 20
6717515.77248848
  0
VERTEX
  8
contour
 10
287036.877749668
 20
6717517.18587435
  0
VERTEX
  8
contour
 10
287037.555739369
 20
6717518.5721675
  0
VERTEX
  8
contour
 10
287038.221271611
 20
6717519.76807546
  0
VERTEX
  8
contour
 10
287038.798753316
 20
6717521.07152761
  0
VERTEX
  8
contour
 10
287039.216001498
 20
6717522.20721406
  0
VERTEX
  8
contour
 10
287039.301715784
 20
6717523.29385105
  0
VERTEX
  8
contour
 10
287038.868292061
 20
6717524.47027898
  0
VERTEX
  8
contour
 10
287038.064985429
 20
6717525.62824764
  0
VERTEX
  8
contour
 10
287036.971563303
 20
6717526.95428291
  0
VERTEX
  8
contour
 10
287035.511342273
 20
6717528.41833813
  0
VERTEX
  8
contour
 10
287034.19347354
 20
6717529.98709006
  0
VERTEX
  8
contour
 10
287033.399062607
 20
6717531.26855502
  0
VERTEX
  8
contour
 10
287032.966458583
 20
6717532.19414634
  0
VERTEX
  8
contour
 10
287032.967115543
 20
6717532.69052132
  0
VERTEX
  8
contour
 10
287032.98472272
 20
6717533.12807767
  0
VERTEX
  8
contour
 10
287033.402594108
 20
6717533.52788736
  0
VERTEX
  8
contour
 10
287033.800612908
 20
6717534.14215021
  0
VERTEX
  8
contour
 10
287034.14
 20
6717535
  0
SEQEND
  0
POLYLINE
 66
1
  8
contour
  0
VERTEX
  8
contour
 10
286997.182959278
 20
6717490.09250248
  0
VERTEX
  8
contour
 10
286996.627916993
 20
6717490.9456706
  0
VERTEX
  8
contour
 10
286996.548297033
 20
6717491.70638898
  0
VERTEX
  8
contour
 10
286996.618989513
 20
6717492.58767138
  0
VERTEX
  8
contour
 10
286997.717064896
 20
6717493.16238182
  0
VERTEX
  8
contour
 10
286998.899470183
 20
6717493.44401063
  0
VERTEX
  8
contour
 10
286999.95246298
 20
6717493.45117374
  0
VERTEX
  8
contour
 10
287000.760465782
 20
6717492.98856393
  0
VERTEX
  8
contour
 10
287001.071419387
 20
6717491.95841615
  0
VERTEX
  8
contour
 10
287000.793928402
 20
6717490.79292567
  0
VERTEX
  8
contour
 10
287000.215949658
 20
6717489.7749265
  0
VERTEX
  8
contour
 10
286999.847014713
 20
6717489.02265997
  0
VERTEX
  8
contour
 10
286999.43359699
 20
6717488.59237688
  0
VERTEX
  8
contour
 10
286998.764521631
 20
6717488.90470007
  0
VERTEX
  8
contour
 10
286997.989451701
 20
6717489.34383298
  0
VERTEX
  8
contour
 10
286997.182959278
 20
6717490.09250248
  0
SEQEND
  0
POLYLINE
 66
1
  8
contour
  0
VERTEX
  8
contour
 10
287159.008726179
 20
6717351.04093191
  0
VERTEX
  8
contour
 10
287158.63529369
 20
6717351.30387758
  0
VERTEX
  8
contour
 10
287158.701591034
 20
6717351.62541503
  0
VERTEX
  8
contour
 10
287159.007627972
 20
6717352.03119836
  0
VERTEX
  8
contour
 10
287160.209665549
 20
6717352.50410792
  0
VERTEX
  8
contour
 10
287161.608346406
 20
6717352.62685586
  0
VERTEX
  8
contour
 10
287162.748806559
 20
6717352.68451456
  0
VERTEX
  8
contour
 10
287163.663770414
 20
6717352.37945529
  0
VERTEX
  8
contour
 10
287163.754119506
 20
6717351.79921335
  0
VERTEX
  8
contour
 10
287163.552416617
 20
6717351.05137376
  0
VERTEX
  8
contour
 10
287162.565972206
 20
6717350.66969325
  0
VERTEX
  8
contour
 10
287161.53945935
 20
6717350.72413837
  0
VERTEX
  8
contour
 10
287160.5852966
 20
6717350.85553795
  0
VERTEX
  8
contour
 10
287159.697699252
 20
6717350.90473307
  0
VERTEX
  8
contour
 10
287159.008726179
 20
6717351.04093191
  0
SEQEND
  0
POLYLINE
 66
1
  8
contour
  0
VERTEX
  8
contour
 10
287173.515240392
 20
6717274.1271283
  0
VERTEX
  8
contour
 10
287173.054348796
 20
6717274.7773517
  0
VERTEX
  8
contour
 10
287173.064578865
 20
6717275.1787231
  0
VERTEX
  8
contour
 10
287173.342730896
 20
6717275.65402214
  0
VERTEX
  8
contour
 10
287174.632126258
 20
6717275.90247063
  0
VERTEX
  8
contour
 10
287176.138031092
 20
6717275.88637952
  0
VERTEX
  8
contour
 10
287177.994029429
 20
6717275.3881396
  0
VERTEX
  8
contour
 10
287179.553998349
 20
6717274.39257979
  0
VERTEX
  8
contour
 10
287180.478021681
 20
6717273.02182407
  0
VERTEX
  8
contour
 10
287180.694153794
 20
6717271.63632456
  0
VERTEX
  8
contour
 10
287180.242611825
 20
6717270.61977051
  0
VERTEX
  8
contour
 10
287179.422316918
 20
6717270.20274624
  0
VERTEX
  8
contour
 10
287178.066178305
 20
6717270.37752102
  0
VERTEX
  8
contour
 10
287176.950526154
 20
6717270.68195409
  0
VERTEX
  8
contour
 10
287176.003849253
 20
6717271.36620951
  0
VERTEX
  8
contour
 10
287175.236162017
 20
6717272.28845449
  0
VERTEX
  8
contour
 10
287174.305015395
 20
6717273.24829807
  0
VERTEX
  8
contour
 10
287173.515240392
 20
6717274.1271283
  0
SEQEND
  0
POLYLINE
 66
1
  8
contour
  0
VERTEX
  8
contour
 10
287211.49506716
 20
6717320.11933664
  0
VERTEX
  8
contour
 10
287211.059328845
 20
6717320.76456545
  0
VERTEX
  8
contour
 10
287211.047513138
 20
6717321.18778566
  0
VERTEX
  8
contour
 10
287211.130390345
 20
6717321.80967506
  0
VERTEX
  8
contour
 10
287211.900770927
 20
6717322.49842057
  0
VERTEX
  8
contour
 10
287213.083424338
 20
6717323.10421844
  0
VERTEX
  8
contour
 10
287214.449519434
 20
6717323.27241801
  0
VERTEX
  8
contour
 10
287215.738006352
 20
6717322.6548463
  0
VERTEX
  8
contour
 10
287217.054050682
 20
6717320.96615053
  0
VERTEX
  8
contour
 10
287217.783922121
 20
6717318.8729445
  0
VERTEX
  8
contour
 10
287217.787122547
 20
6717316.87770534
  0
VERTEX
  8
contour
 10
287217.256942821
 20
6717315.37862016
  0
VERTEX
  8
contour
 10
287216.519990214
 20
6717314.49226525
  0
VERTEX
  8
contour
 10
287215.787933634
 20
6717314.38473177
  0
VERTEX
  8
contour
 10
287214.939489792
 20
6717314.94776413
  0
VERTEX
  8
contour
 10
287214.367323769
 20
6717315.79898152
  0
VERTEX
  8
contour
 10
287213.863071522
 20
6717316.97390523
  0
VERTEX
  8
contour
 10
287213.146905933
 20
6717318.1226888
  0
VERTEX
  8
contour
 10
287212.262270746
 20
6717319.2079477
  0
VERTEX
  8
contour
 10
287211.49506716
 20
6717320.11933664
  0
SEQEND
  0
POLYLINE
 66
1
  8
contour
  0
VERTEX
  8
contour
 10
287229.478306032
 20
6717244.18199262
  0
VERTEX
  8
contour
 10
287228.878709189
 20
6717245.02167913
  0
VERTEX
  8
contour
 10
287228.602967021
 20
6717245.84579984
  0
VERTEX
  8
contour
 10
287228.529551427
 20
6717246.52927005
  0
VERTEX
  8
contour
 10
287228.844600821
 20
6717247.52036779
  0
VERTEX
  8
contour
 10
287229.520364248
 20
6717248.51015415
  0
VERTEX
  8
contour
 10
287230.153033224
 20
6717249.7052075
  0
VERTEX
  8
contour
 10
287231.025235421
 20
6717250.91474533
  0
VERTEX
  8
contour
 10
287231.710240117
 20
6717252.26428299
  0
VERTEX
  8
contour
 10
287232.668254198
 20
6717253.3117458
  0
VERTEX
  8
contour
 10
287233.646382349
 20
6717254.33361765
  0
VERTEX
  8
contour
 10
287234.544717048
 20
6717255.43528295
  0
VERTEX
  8
contour
 10
287235.682924679
 20
6717256.29707532
  0
VERTEX
  8
contour
 10
287236.64189131
 20
6717257.33810869
  0
VERTEX
  8
contour
 10
287237.927555648
 20
6717258.05244435
  0
VERTEX
  8
contour
 10
287239.127022212
 20
6717258.85297779
  0
VERTEX
  8
contour
 10
287240.556349759
 20
6717259.42365024
  0
VERTEX
  8
contour
 10
287242.110447902
 20
6717259.8695521
  0
VERTEX
  8
contour
 10
287243.875520041
 20
6717260.10447996
  0
VERTEX
  8
contour
 10
287245.880893408
 20
6717260.09910659
  0
VERTEX
  8
contour
 10
287247.601519747
 20
6717260.38045802
  0
VERTEX
  8
contour
 10
287248.998916132
 20
6717261.00039517
  0
VERTEX
  8
contour
 10
287250.027145758
 20
6717262.04180004
  0
VERTEX
  8
contour
 10
287251.02368503
 20
6717263.12157898
  0
VERTEX
  8
contour
 10
287252.131363276
 20
6717263.93731423
  0
VERTEX
  8
contour
 10
287253.911194779
 20
6717264.03552277
  0
VERTEX
  8
contour
 10
287256.091628797
 20
6717263.34868326
  0
VERTEX
  8
contour
 10
287257.987991538
 20
6717262.16018891
  0
VERTEX
  8
contour
 10
287259.796167611
 20
6717260.63818437
  0
VERTEX
  8
contour
 10
287261.261102127
 20
6717259.03098539
  0
VERTEX
  8
contour
 10
287262.684449043
 20
6717257.46173108
  0
VERTEX
  8
contour
 10
287264.262991674
 20
6717256.11800658
  0
VERTEX
  8
contour
 10
287266.199529265
 20
6717254.93675153
  0
VERTEX
  8
contour
 10
287268.376741648
 20
6717253.91490931
  0
VERTEX
  8
contour
 10
287269.96930258
 20
6717252.76033106
  0
VERTEX
  8
contour
 10
287270.83392387
 20
6717251.58925731
  0
VERTEX
  8
contour
 10
287270.710229936
 20
6717250.42109518
  0
VERTEX
  8
contour
 10
287269.74917207
 20
6717249.52034165
  0
VERTEX
  8
contour
 10
287268.369197302
 20
6717248.71794494
  0
VERTEX
  8
contour
 10
287267.108253811
 20
6717247.79378325
  0
VERTEX
  8
contour
 10
287266.183091418
 20
6717246.8377893
  0
VERTEX
  8
contour
 10
287264.953548359
 20
6717245.94692114
  0
VERTEX
  8
contour
 10
287263.739888719
 20
6717245.2578192
  0
VERTEX
  8
contour
 10
287262.53373209
 20
6717244.40989676
  0
VERTEX
  8
contour
 10
287261.516858555
 20
6717243.55159148
  0
VERTEX
  8
contour
 10
287260.612018916
 20
6717242.54439998
  0
VERTEX
  8
contour
 10
287259.597721834
 20
6717241.49026246
  0
VERTEX
  8
contour
 10
287258.520479093
 20
6717240.65302932
  0
VERTEX
  8
contour
 10
287257.006384769
 20
6717240.24510848
  0
VERTEX
  8
contour
 10
287255.014915378
 20
6717240.30410318
  0
VERTEX
  8
contour
 10
287252.936960998
 20
6717240.31532492
  0
VERTEX
  8
contour
 10
287251.112835262
 20
6717240.09741432
  0
VERTEX
  8
contour
 10
287249.461910922
 20
6717239.66307317
  0
VERTEX
  8
contour
 10
287247.991833018
 20
6717239.10336974
  0
VERTEX
  8
contour
 10
287246.544988844
 20
6717238.581578
  0
VERTEX
  8
contour
 10
287244.961241384
 20
6717238.23969463
  0
VERTEX
  8
contour
 10
287243.056395012
 20
6717238.1799312
  0
VERTEX
  8
contour
 10
287240.874520157
 20
6717238.27433608
  0
VERTEX
  8
contour
 10
287238.910495388
 20
6717238.30762215
  0
VERTEX
  8
contour
 10
287237.022503805
 20
6717238.45686544
  0
VERTEX
  8
contour
 10
287235.494691652
 20
6717238.69888362
  0
VERTEX
  8
contour
 10
287234.171909652
 20
6717239.33194032
  0
VERTEX
  8
contour
 10
287233.182251015
 20
6717240.12743961
  0
VERTEX
  8
contour
 10
287232.20558231
 20
6717241.20664117
  0
VERTEX
  8
contour
 10
287231.279442668
 20
6717242.28253308
  0
VERTEX
  8
contour
 10
287230.321207131
 20
6717243.27583777
  0
VERTEX
  8
contour
 10
287229.478306032
 20
6717244.18199262
  0
SEQEND
  0
POLYLINE
 66
1
  8
contour_intermed
  0
VERTEX
  8
contour_intermed
 10
287285
 20
6717375.94
  0
VERTEX
  8
contour_intermed
 10
287283.61025535
 20
6717376.59125348
  0
VERTEX
  8
contour_intermed
 10
287282.369767686
 20
6717377.36406922
  0
VERTEX
  8
contour_intermed
 10
287281.295585591
 20
6717378.25916851
  0
VERTEX
  8
contour_intermed
 10
287280.221102094
 20
6717379.01928694
  0
VERTEX
  8
contour_intermed
 10
287278.746191073
 20
6717379.58515677
  0
VERTEX
  8
contour_intermed
 10
287277.070270948
 20
6717379.88639162
  0
VERTEX
  8
contour_intermed
 10
287275.076940884
 20
6717380.28394403
  0
VERTEX
  8
contour_intermed
 10
287273.019311296
 20
6717380.6935418
  0
VERTEX
  8
contour_intermed
 10
287271.001977768
 20
6717381.30045533
  0
VERTEX
  8
contour_intermed
 10
287269
 20
6717381.94518683
  0
VERTEX
  8
contour_intermed
 10
287267
 20
6717382.8359819
  0
VERTEX
  8
contour_intermed
 10
287265
 20
6717383.79856258
  0
VERTEX
  8
contour_intermed
 10
287263
 20
6717384.9834119
  0
VERTEX
  8
contour_intermed
 10
287261
 20
6717386.39250385
  0
VERTEX
  8
contour_intermed
 10
287259
 20
6717387.74335827
  0
VERTEX
  8
contour_intermed
 10
287257
 20
6717388.88883308
  0
VERTEX
  8
contour_intermed
 10
287255
 20
6717389.35236671
  0
VERTEX
  8
contour_intermed
 10
287253
 20
6717389.53832483
  0
VERTEX
  8
contour_intermed
 10
287251
 20
6717389.49856509
  0
VERTEX
  8
contour_intermed
 10
287249
 20
6717389.44656095
  0
VERTEX
  8
contour_intermed
 10
287247
 20
6717389.49359364
  0
VERTEX
  8
contour_intermed
 10
287245
 20
6717389.78030201
  0
VERTEX
  8
contour_intermed
 10
287243
 20
6717390.38740169
  0
VERTEX
  8
contour_intermed
 10
287241
 20
6717391.33697937
  0
VERTEX
  8
contour_intermed
 10
287239
 20
6717392.27142765
  0
VERTEX
  8
contour_intermed
 10
287236.995511988
 20
6717393.20844652
  0
VERTEX
  8
contour_intermed
 10
287234.955944156
 20
6717393.89206649
  0
VERTEX
  8
contour_intermed
 10
287232.79271545
 20
6717394.33367892
  0
VERTEX
  8
contour_intermed
 10
287230.605271349
 20
6717394.89261584
  0
VERTEX
  8
contour_intermed
 10
287228.819043817
 20
6717395.39417121
  0
VERTEX
  8
contour_intermed
 10
287227.55100311
 20
6717396.29188752
  0
VERTEX
  8
contour_intermed
 10
287226.980305965
 20
6717397.39570209
  0
VERTEX
  8
contour_intermed
 10
287227.063225065
 20
6717398.72282296
  0
VERTEX
  8
contour_intermed
 10
287227.71859087
 20
6717400.07809539
  0
VERTEX
  8
contour_intermed
 10
287228.388715317
 20
6717401.54596686
  0
VERTEX
  8
contour_intermed
 10
287228.972655441
 20
6717403.00247621
  0
VERTEX
  8
contour_intermed
 10
287229.71605709
 20
6717404.26394291
  0
VERTEX
  8
contour_intermed
 10
287230.666431461
 20
6717405.32033859
  0
VERTEX
  8
contour_intermed
 10
287231.532052277
 20
6717406.50604123
  0
VERTEX
  8
contour_intermed
 10
287232.039393911
 20
6717408.19214987
  0
VERTEX
  8
contour_intermed
 10
287232.356932148
 20
6717409.99880034
  0
VERTEX
  8
contour_intermed
 10
287232.118867363
 20
6717412.06651573
  0
VERTEX
  8
contour_intermed
 10
287231.473810079
 20
6717414.01321653
  0
VERTEX
  8
contour_intermed
 10
287230.377331192
 20
6717415.50979737
  0
VERTEX
  8
contour_intermed
 10
287228.849205807
 20
6717416.42781057
  0
VERTEX
  8
contour_intermed
 10
287227.094620695
 20
6717416.89502273
  0
VERTEX
  8
contour_intermed
 10
287225.168298358
 20
6717417.12466237
  0
VERTEX
  8
contour_intermed
 10
287223.412913143
 20
6717417.18102208
  0
VERTEX
  8
contour_intermed
 10
287222.067247386
 20
6717417.03333856
  0
VERTEX
  8
contour_intermed
 10
287220.816916664
 20
6717416.83108861
  0
VERTEX
  8
contour_intermed
 10
287219.559141931
 20
6717416.86468377
  0
VERTEX
  8
contour_intermed
 10
287218.10447905
 20
6717416.90380668
  0
VERTEX
  8
contour_intermed
 10
287216.74681935
 20
6717417.07467137
  0
VERTEX
  8
contour_intermed
 10
287215.339735455
 20
6717417.02202638
  0
VERTEX
  8
contour_intermed
 10
287213.737420728
 20
6717416.82920181
  0
VERTEX
  8
contour_intermed
 10
287212.440191135
 20
6717416.54461358
  0
VERTEX
  8
contour_intermed
 10
287211.163327924
 20
6717415.80685962
  0
VERTEX
  8
contour_intermed
 10
287209.886282887
 20
6717415.22094957
  0
VERTEX
  8
contour_intermed
 10
287208.395950034
 20
6717414.67511666
  0
VERTEX
  8
contour_intermed
 10
287206.834748597
 20
6717414.55801199
  0
VERTEX
  8
contour_intermed
 10
287205.067282287
 20
6717414.57520832
  0
VERTEX
  8
contour_intermed
 10
287202.88169112
 20
6717414.46817852
  0
VERTEX
  8
contour_intermed
 10
287201.018130372
 20
6717414.37396208
  0
VERTEX
  8
contour_intermed
 10
287199.279936232
 20
6717413.83061837
  0
VERTEX
  8
contour_intermed
 10
287197.752857599
 20
6717413.29361994
  0
VERTEX
  8
contour_intermed
 10
287196.307574297
 20
6717412.78935601
  0
VERTEX
  8
contour_intermed
 10
287194.680292136
 20
6717412.6155189
  0
VERTEX
  8
contour_intermed
 10
287193.016115571
 20
6717412.87380267
  0
VERTEX
  8
contour_intermed
 10
287191.041366774
 20
6717413.78946738
  0
VERTEX
  8
contour_intermed
 10
287189.551737474
 20
6717414.99865936
  0
VERTEX
  8
contour_intermed
 10
287188.265994617
 20
6717416.46747302
  0
VERTEX
  8
contour_intermed
 10
287187.288653723
 20
6717417.92584764
  0
VERTEX
  8
contour_intermed
 10
287186.376354477
 20
6717418.9471777
  0
VERTEX
  8
contour_intermed
 10
287185.356468566
 20
6717419.36608433
  0
VERTEX
  8
contour_intermed
 10
287184.358421329
 20
6717418.7733146
  0
VERTEX
  8
contour_intermed
 10
287183.110293536
 20
6717417.9267911
  0
VERTEX
  8
contour_intermed
 10
287182.044613844
 20
6717416.96643185
  0
VERTEX
  8
contour_intermed
 10
287180.85609359
 20
6717416.08303091
  0
VERTEX
  8
contour_intermed
 10
287179.534075867
 20
6717415.44392091
  0
VERTEX
  8
contour_intermed
 10
287178.062333713
 20
6717414.9107624
  0
VERTEX
  8
contour_intermed
 10
287176.478348754
 20
6717414.59835404
  0
VERTEX
  8
contour_intermed
 10
287174.848203802
 20
6717414.27158809
  0
VERTEX
  8
contour_intermed
 10
287173.131135319
 20
6717413.89915905
  0
VERTEX
  8
contour_intermed
 10
287171.281869267
 20
6717413.3791398
  0
VERTEX
  8
contour_intermed
 10
287169.864031975
 20
6717412.8382679
  0
VERTEX
  8
contour_intermed
 10
287168.65514069
 20
6717412.22669307
  0
VERTEX
  8
contour_intermed
 10
287167.511596883
 20
6717411.52270391
  0
VERTEX
  8
contour_intermed
 10
287166.256808273
 20
6717410.90693398
  0
VERTEX
  8
contour_intermed
 10
287164.673419215
 20
6717410.54250986
  0
VERTEX
  8
contour_intermed
 10
287162.903396828
 20
6717410.23867253
  0
VERTEX
  8
contour_intermed
 10
287161.032691879
 20
6717409.94542527
  0
VERTEX
  8
contour_intermed
 10
287159.211969781
 20
6717409.60035019
  0
VERTEX
  8
contour_intermed
 10
287157.622457224
 20
6717409.22474192
  0
VERTEX
  8
contour_intermed
 10
287156.195329517
 20
6717408.97645867
  0
VERTEX
  8
contour_intermed
 10
287154.709354757
 20
6717408.62932802
  0
VERTEX
  8
contour_intermed
 10
287153.031295868
 20
6717408.48516141
  0
VERTEX
  8
contour_intermed
 10
287150.896948391
 20
6717408.51683255
  0
VERTEX
  8
contour_intermed
 10
287148.990924817
 20
6717408.6387364
  0
VERTEX
  8
contour_intermed
 10
287147.219385334
 20
6717408.62904568
  0
VERTEX
  8
contour_intermed
 10
287145.667215701
 20
6717408.6237136
  0
VERTEX
  8
contour_intermed
 10
287144.255181428
 20
6717408.66855399
  0
VERTEX
  8
contour_intermed
 10
287142.76675424
 20
6717408.6434858
  0
VERTEX
  8
contour_intermed
 10
287141.113640939
 20
6717408.50775225
  0
VERTEX
  8
contour_intermed
 10
287139.059638072
 20
6717408.32007882
  0
VERTEX
  8
contour_intermed
 10
287137.011208184
 20
6717408.19298474
  0
VERTEX
  8
contour_intermed
 10
287135.000608544
 20
6717407.89969965
  0
VERTEX
  8
contour_intermed
 10
287132.99315388
 20
6717407.66028682
  0
VERTEX
  8
contour_intermed
 10
287130.951877636
 20
6717407.65425942
  0
VERTEX
  8
contour_intermed
 10
287128.83044156
 20
6717407.77720859
  0
VERTEX
  8
contour_intermed
 10
287126.960143387
 20
6717407.99709523
  0
VERTEX
  8
contour_intermed
 10
287125.148785553
 20
6717407.87241611
  0
VERTEX
  8
contour_intermed
 10
287123.491452422
 20
6717407.37407583
  0
VERTEX
  8
contour_intermed
 10
287122.254495298
 20
6717406.72111062
  0
VERTEX
  8
contour_intermed
 10
287121.036610226
 20
6717405.97608631
  0
VERTEX
  8
contour_intermed
 10
287119.865387029
 20
6717405.22068413
  0
VERTEX
  8
contour_intermed
 10
287118.409815628
 20
6717404.57852674
  0
VERTEX
  8
contour_intermed
 10
287116.849173875
 20
6717404.08494055
  0
VERTEX
  8
contour_intermed
 10
287115.133168781
 20
6717403.9464164
  0
VERTEX
  8
contour_intermed
 10
287113.048572537
 20
6717403.99216733
  0
VERTEX
  8
contour_intermed
 10
287111.006922188
 20
6717404.18411089
  0
VERTEX
  8
contour_intermed
 10
287109
 20
6717404.47455991
  0
VERTEX
  8
contour_intermed
 10
287106.998022232
 20
6717404.36744818
  0
VERTEX
  8
contour_intermed
 10
287104.977798119
 20
6717404.11668891
  0
VERTEX
  8
contour_intermed
 10
287102.889079278
 20
6717403.80050751
  0
VERTEX
  8
contour_intermed
 10
287100.758819467
 20
6717403.89905473
  0
VERTEX
  8
contour_intermed
 10
287098.916925031
 20
6717404.5843845
  0
VERTEX
  8
contour_intermed
 10
287097.348885671
 20
6717405.99525994
  0
VERTEX
  8
contour_intermed
 10
287096.094275429
 20
6717408.15224543
  0
VERTEX
  8
contour_intermed
 10
287095.258494762
 20
6717410.5097285
  0
VERTEX
  8
contour_intermed
 10
287094.690875109
 20
6717412.66610551
  0
VERTEX
  8
contour_intermed
 10
287094.018897079
 20
6717414.02457958
  0
VERTEX
  8
contour_intermed
 10
287093.093169112
 20
6717414.71809287
  0
VERTEX
  8
contour_intermed
 10
287092.21189454
 20
6717414.62461968
  0
VERTEX
  8
contour_intermed
 10
287091.190636342
 20
6717413.9229051
  0
VERTEX
  8
contour_intermed
 10
287089.831336887
 20
6717413.33900693
  0
VERTEX
  8
contour_intermed
 10
287088.408052927
 20
6717413.02826381
  0
VERTEX
  8
contour_intermed
 10
287087.061716955
 20
6717412.8377051
  0
VERTEX
  8
contour_intermed
 10
287085.90165905
 20
6717412.53199204
  0
VERTEX
  8
contour_intermed
 10
287084.774952302
 20
6717412.07955416
  0
VERTEX
  8
contour_intermed
 10
287083.771572076
 20
6717411.73413731
  0
VERTEX
  8
contour_intermed
 10
287082.590522473
 20
6717411.54901779
  0
VERTEX
  8
contour_intermed
 10
287080.780639588
 20
6717411.94671026
  0
VERTEX
  8
contour_intermed
 10
287078.983124913
 20
6717412.58382501
  0
VERTEX
  8
contour_intermed
 10
287077.363095925
 20
6717413.02425905
  0
VERTEX
  8
contour_intermed
 10
287076.086087917
 20
6717412.5699812
  0
VERTEX
  8
contour_intermed
 10
287075.064124125
 20
6717411.57750632
  0
VERTEX
  8
contour_intermed
 10
287074.22070677
 20
6717410.61692854
  0
VERTEX
  8
contour_intermed
 10
287073.200918152
 20
6717409.70884638
  0
VERTEX
  8
contour_intermed
 10
287071.753519161
 20
6717409.21529589
  0
VERTEX
  8
contour_intermed
 10
287070.201198896
 20
6717408.7011798
  0
VERTEX
  8
contour_intermed
 10
287068.686701187
 20
6717408.30416583
  0
VERTEX
  8
contour_intermed
 10
287067.056992925
 20
6717408.01686444
  0
VERTEX
  8
contour_intermed
 10
287065.074542777
 20
6717407.7435929
  0
VERTEX
  8
contour_intermed
 10
287063.018861124
 20
6717407.63409168
  0
VERTEX
  8
contour_intermed
 10
287061.0019017
 20
6717407.69977981
  0
VERTEX
  8
contour_intermed
 10
287058.994903444
 20
6717407.75553829
  0
VERTEX
  8
contour_intermed
 10
287056.962231613
 20
6717407.76378958
  0
VERTEX
  8
contour_intermed
 10
287054.860834438
 20
6717407.92512909
  0
VERTEX
  8
contour_intermed
 10
287052.932550401
 20
6717408.12824976
  0
VERTEX
  8
contour_intermed
 10
287051.155747478
 20
6717408.28120558
  0
VERTEX
  8
contour_intermed
 10
287049.550565258
 20
6717408.41869831
  0
VERTEX
  8
contour_intermed
 10
287048.10555165
 20
6717408.55226583
  0
VERTEX
  8
contour_intermed
 10
287046.640751174
 20
6717408.75827318
  0
VERTEX
  8
contour_intermed
 10
287045.029041881
 20
6717408.87613603
  0
VERTEX
  8
contour_intermed
 10
287043.063558567
 20
6717409.4801803
  0
VERTEX
  8
contour_intermed
 10
287040.9200355
 20
6717410.36789351
  0
VERTEX
  8
contour_intermed
 10
287038.719141688
 20
6717411.57359952
  0
VERTEX
  8
contour_intermed
 10
287036.789774362
 20
6717412.92037118
  0
VERTEX
  8
contour_intermed
 10
287035.304457027
 20
6717414.47023558
  0
VERTEX
  8
contour_intermed
 10
287034.333087846
 20
6717416.36631667
  0
VERTEX
  8
contour_intermed
 10
287033.793996777
 20
6717418.41292397
  0
VERTEX
  8
contour_intermed
 10
287033.362991324
 20
6717420.43631635
  0
VERTEX
  8
contour_intermed
 10
287032.569793189
 20
6717422.14732652
  0
VERTEX
  8
contour_intermed
 10
287030.935818207
 20
6717423.45699046
  0
VERTEX
  8
contour_intermed
 10
287028.994570355
 20
6717424.12882774
  0
VERTEX
  8
contour_intermed
 10
287027.15518793
 20
6717424.65977352
  0
VERTEX
  8
contour_intermed
 10
287025.784195705
 20
6717425.11331239
  0
VERTEX
  8
contour_intermed
 10
287024.726424386
 20
6717426.14238095
  0
VERTEX
  8
contour_intermed
 10
287023.77055764
 20
6717427.37086676
  0
VERTEX
  8
contour_intermed
 10
287022.668177552
 20
6717428.66267688
  0
VERTEX
  8
contour_intermed
 10
287021.022567085
 20
6717429.8240048
  0
VERTEX
  8
contour_intermed
 10
287019.039842396
 20
6717430.56150347
  0
VERTEX
  8
contour_intermed
 10
287016.816808779
 20
6717431.48744171
  0
VERTEX
  8
contour_intermed
 10
287014.845250507
 20
6717432.46507834
  0
VERTEX
  8
contour_intermed
 10
287013.171532041
 20
6717433.52343392
  0
VERTEX
  8
contour_intermed
 10
287011.730554256
 20
6717434.52325686
  0
VERTEX
  8
contour_intermed
 10
287010.833786752
 20
6717435.24107815
  0
VERTEX
  8
contour_intermed
 10
287010.080972364
 20
6717435.78371212
  0
VERTEX
  8
contour_intermed
 10
287009.395887369
 20
6717436.27000355
  0
VERTEX
  8
contour_intermed
 10
287008.61231562
 20
6717436.71649103
  0
VERTEX
  8
contour_intermed
 10
287007.839504029
 20
6717437.2546539
  0
VERTEX
  8
contour_intermed
 10
287007.357708764
 20
6717437.58777823
  0
VERTEX
  8
contour_intermed
 10
287006.88026645
 20
6717438.19687003
  0
VERTEX
  8
contour_intermed
 10
287006.605141666
 20
6717438.92426847
  0
VERTEX
  8
contour_intermed
 10
287006.561045901
 20
6717439.73610189
  0
VERTEX
  8
contour_intermed
 10
287006.545290101
 20
6717440.60426656
  0
VERTEX
  8
contour_intermed
 10
287006.494897456
 20
6717441.72487231
  0
VERTEX
  8
contour_intermed
 10
287006.597235594
 20
6717442.89124461
  0
VERTEX
  8
contour_intermed
 10
287006.602779516
 20
6717444.09351251
  0
VERTEX
  8
contour_intermed
 10
287006.405450317
 20
6717445.44825912
  0
VERTEX
  8
contour_intermed
 10
287006.009369937
 20
6717446.93201558
  0
VERTEX
  8
contour_intermed
 10
287005.661248902
 20
6717448.3489989
  0
VERTEX
  8
contour_intermed
 10
287005.489841548
 20
6717449.33817489
  0
VERTEX
  8
contour_intermed
 10
287005.275571396
 20
6717450.15616286
  0
VERTEX
  8
contour_intermed
 10
287005.027710054
 20
6717450.93676867
  0
VERTEX
  8
contour_intermed
 10
287004.878612746
 20
6717451.51567513
  0
VERTEX
  8
contour_intermed
 10
287004.68726459
 20
6717451.91401453
  0
VERTEX
  8
contour_intermed
 10
287004.575687286
 20
6717452.49160436
  0
VERTEX
  8
contour_intermed
 10
287004.75563142
 20
6717453.02480215
  0
VERTEX
  8
contour_intermed
 10
287005.385957305
 20
6717453.4443696
  0
VERTEX
  8
contour_intermed
 10
287006.43441818
 20
6717453.70994237
  0
VERTEX
  8
contour_intermed
 10
287007.735791907
 20
6717454.13129936
  0
VERTEX
  8
contour_intermed
 10
287009.121095022
 20
6717454.78216409
  0
VERTEX
  8
contour_intermed
 10
287010.123957323
 20
6717455.83898225
  0
VERTEX
  8
contour_intermed
 10
287010.807186994
 20
6717457.17121558
  0
VERTEX
  8
contour_intermed
 10
287011.114674151
 20
6717458.86532585
  0
VERTEX
  8
contour_intermed
 10
287011.371627026
 20
6717460.60837298
  0
VERTEX
  8
contour_intermed
 10
287011.620207321
 20
6717462.35979268
  0
VERTEX
  8
contour_intermed
 10
287011.835928598
 20
6717464.1440714
  0
VERTEX
  8
contour_intermed
 10
287012.22171958
 20
6717465.75828042
  0
VERTEX
  8
contour_intermed
 10
287012.695669473
 20
6717467.28433053
  0
VERTEX
  8
contour_intermed
 10
287013.055719821
 20
6717468.92428018
  0
VERTEX
  8
contour_intermed
 10
287013.484059491
 20
6717470.49594051
  0
VERTEX
  8
contour_intermed
 10
287014.030499611
 20
6717471.94950039
  0
VERTEX
  8
contour_intermed
 10
287014.831322127
 20
6717473.14867787
  0
VERTEX
  8
contour_intermed
 10
287015.971145166
 20
6717474.00885483
  0
VERTEX
  8
contour_intermed
 10
287017.127662046
 20
6717474.85233795
  0
VERTEX
  8
contour_intermed
 10
287018.428762199
 20
6717475.5512378
  0
VERTEX
  8
contour_intermed
 10
287019.64708623
 20
6717476.33291377
  0
VERTEX
  8
contour_intermed
 10
287020.905312082
 20
6717477.07468792
  0
VERTEX
  8
contour_intermed
 10
287022.129598321
 20
6717477.85040168
  0
VERTEX
  8
contour_intermed
 10
287023.479443936
 20
6717478.50055606
  0
VERTEX
  8
contour_intermed
 10
287024.733059434
 20
6717479.24694057
  0
VERTEX
  8
contour_intermed
 10
287025.849716424
 20
6717480.13028358
  0
VERTEX
  8
contour_intermed
 10
287026.728231557
 20
6717481.25176844
  0
VERTEX
  8
contour_intermed
 10
287027.333360465
 20
6717482.64663954
  0
VERTEX
  8
contour_intermed
 10
287028.036792303
 20
6717483.9432077
  0
VERTEX
  8
contour_intermed
 10
287028.767399678
 20
6717485.21260032
  0
VERTEX
  8
contour_intermed
 10
287029.799868344
 20
6717486.18013165
  0
VERTEX
  8
contour_intermed
 10
287030.967859311
 20
6717487.01214069
  0
VERTEX
  8
contour_intermed
 10
287032.191571154
 20
6717487.78842884
  0
VERTEX
  8
contour_intermed
 10
287033.359007622
 20
6717488.62099238
  0
VERTEX
  8
contour_intermed
 10
287034.479743976
 20
6717489.50025602
  0
VERTEX
  8
contour_intermed
 10
287035.345794359
 20
6717490.63420564
  0
VERTEX
  8
contour_intermed
 10
287036.148770955
 20
6717491.83122905
  0
VERTEX
  8
contour_intermed
 10
287036.720283476
 20
6717493.25971652
  0
VERTEX
  8
contour_intermed
 10
287037.180465999
 20
6717494.799534
  0
VERTEX
  8
contour_intermed
 10
287037.792975029
 20
6717496.18702497
  0
VERTEX
  8
contour_intermed
 10
287038.454157316
 20
6717497.52584269
  0
VERTEX
  8
contour_intermed
 10
287039.199082886
 20
6717498.78091711
  0
VERTEX
  8
contour_intermed
 10
287039.888491156
 20
6717500.09767035
  0
VERTEX
  8
contour_intermed
 10
287040.559946676
 20
6717501.46412413
  0
VERTEX
  8
contour_intermed
 10
287041.315059825
 20
6717502.82218903
  0
VERTEX
  8
contour_intermed
 10
287042.042743549
 20
6717503.98081393
  0
VERTEX
  8
contour_intermed
 10
287042.540563605
 20
6717505.24881848
  0
VERTEX
  8
contour_intermed
 10
287042.790958154
 20
6717506.57315234
  0
VERTEX
  8
contour_intermed
 10
287042.798211614
 20
6717507.99244406
  0
VERTEX
  8
contour_intermed
 10
287042.728905103
 20
6717509.53978201
  0
VERTEX
  8
contour_intermed
 10
287042.88524474
 20
6717511.01776892
  0
VERTEX
  8
contour_intermed
 10
287043.259292693
 20
6717512.65142502
  0
VERTEX
  8
contour_intermed
 10
287043.92283402
 20
6717514.0410059
  0
VERTEX
  8
contour_intermed
 10
287044.559588825
 20
6717515.41896588
  0
VERTEX
  8
contour_intermed
 10
287044.972572732
 20
6717517.00742727
  0
VERTEX
  8
contour_intermed
 10
287045.518205973
 20
6717518.46179403
  0
VERTEX
  8
contour_intermed
 10
287045.993144538
 20
6717519.98685546
  0
VERTEX
  8
contour_intermed
 10
287046.509749462
 20
6717521.47025054
  0
VERTEX
  8
contour_intermed
 10
287047.046821849
 20
6717522.93317815
  0
VERTEX
  8
contour_intermed
 10
287047.676139632
 20
6717524.30386037
  0
VERTEX
  8
contour_intermed
 10
287048.526716089
 20
6717525.45374032
  0
VERTEX
  8
contour_intermed
 10
287049.413366938
 20
6717526.5769409
  0
VERTEX
  8
contour_intermed
 10
287050.411221654
 20
6717527.63592247
  0
VERTEX
  8
contour_intermed
 10
287051.559904114
 20
6717528.63931906
  0
VERTEX
  8
contour_intermed
 10
287052.598627797
 20
6717529.54879361
  0
VERTEX
  8
contour_intermed
 10
287053.613039766
 20
6717530.16097874
  0
VERTEX
  8
contour_intermed
 10
287054.492975179
 20
6717530.66123084
  0
VERTEX
  8
contour_intermed
 10
287055.241919289
 20
6717530.90823538
  0
VERTEX
  8
contour_intermed
 10
287055.584563745
 20
6717531.36456732
  0
VERTEX
  8
contour_intermed
 10
287055.403908196
 20
6717532.3921157
  0
VERTEX
  8
contour_intermed
 10
287055.22642632
 20
6717533.57721826
  0
VERTEX
  8
contour_intermed
 10
287054.76
 20
6717535
  0
SEQEND
  0
POLYLINE
 66
1
  8
contour_intermed
  0
VERTEX
  8
contour_intermed
 10
287181.323274942
 20
6717350.12375843
  0
VERTEX
  8
contour_intermed
 10
287180.749039109
 20
6717350.97998054
  0
VERTEX
  8
contour_intermed
 10
287180.509513281
 20
6717351.83959983
  0
VERTEX
  8
contour_intermed
 10
287180.237362037
 20
6717352.78170162
  0
VERTEX
  8
contour_intermed
 10
287180.947447043
 20
6717353.43119934
  0
VERTEX
  8
contour_intermed
 10
287182.172243247
 20
6717353.86656387
  0
VERTEX
  8
contour_intermed
 10
287183.897013107
 20
6717354.00664779
  0
VERTEX
  8
contour_intermed
 10
287186.086002866
 20
6717354.07109763
  0
VERTEX
  8
contour_intermed
 10
287188.36962887
 20
6717354.08823278
  0
VERTEX
  8
contour_intermed
 10
287190.527334415
 20
6717353.82711651
  0
VERTEX
  8
contour_intermed
 10
287192.267887223
 20
6717353.37926718
  0
VERTEX
  8
contour_intermed
 10
287193.342967817
 20
6717352.51906313
  0
VERTEX
  8
contour_intermed
 10
287193.731227186
 20
6717351.31253301
  0
VERTEX
  8
contour_intermed
 10
287193.203473351
 20
6717350.10580427
  0
VERTEX
  8
contour_intermed
 10
287191.978019172
 20
6717349.13606546
  0
VERTEX
  8
contour_intermed
 10
287190.479508911
 20
6717348.65345446
  0
VERTEX
  8
contour_intermed
 10
287188.935442584
 20
6717348.39815595
  0
VERTEX
  8
contour_intermed
 10
287187.346036425
 20
6717348.31291057
  0
VERTEX
  8
contour_intermed
 10
287185.871562502
 20
6717348.2367689
  0
VERTEX
  8
contour_intermed
 10
287184.762474082
 20
6717348.15594025
  0
VERTEX
  8
contour_intermed
 10
287183.799731303
 20
6717348.29881673
  0
VERTEX
  8
contour_intermed
 10
287182.998755251
 20
6717348.74894563
  0
VERTEX
  8
contour_intermed
 10
287182.121336951
 20
6717349.33808827
  0
VERTEX
  8
contour_intermed
 10
287181.323274942
 20
6717350.12375843
  0
SEQEND
  0
POLYLINE
 66
1
  8
contour_intermed
  0
VERTEX
  8
contour_intermed
 10
287193.008964803
 20
6717389.83244422
  0
VERTEX
  8
contour_intermed
 10
287192.934671196
 20
6717390.50148271
  0
VERTEX
  8
contour_intermed
 10
287193.083830233
 20
6717391.01054797
  0
VERTEX
  8
contour_intermed
 10
287193.316236965
 20
6717391.54816032
  0
VERTEX
  8
contour_intermed
 10
287194.469290437
 20
6717391.83838105
  0
VERTEX
  8
contour_intermed
 10
287196.234194711
 20
6717392.08180882
  0
VERTEX
  8
contour_intermed
 10
287198.196695944
 20
6717392.02908589
  0
VERTEX
  8
contour_intermed
 10
287199.952430173
 20
6717391.61995351
  0
VERTEX
  8
contour_intermed
 10
287201.041821886
 20
6717390.78653484
  0
VERTEX
  8
contour_intermed
 10
287201.468893931
 20
6717389.4306696
  0
VERTEX
  8
contour_intermed
 10
287201.248697648
 20
6717387.93139188
  0
VERTEX
  8
contour_intermed
 10
287200.435761279
 20
6717386.51139228
  0
VERTEX
  8
contour_intermed
 10
287199.377388162
 20
6717385.48517074
  0
VERTEX
  8
contour_intermed
 10
287198.24568284
 20
6717384.707435
  0
VERTEX
  8
contour_intermed
 10
287197.066132212
 20
6717384.27628649
  0
VERTEX
  8
contour_intermed
 10
287195.910986555
 20
6717384.51556193
  0
VERTEX
  8
contour_intermed
 10
287194.93066325
 20
6717385.10826897
  0
VERTEX
  8
contour_intermed
 10
287194.416058015
 20
6717385.87600737
  0
VERTEX
  8
contour_intermed
 10
287194.101936283
 20
6717386.85831916
  0
VERTEX
  8
contour_intermed
 10
287193.645508174
 20
6717388.0898689
  0
VERTEX
  8
contour_intermed
 10
287193.241403524
 20
6717389.04234634
  0
VERTEX
  8
contour_intermed
 10
287193.008964803
 20
6717389.83244422
  0
SEQEND
  0
POLYLINE
 66
1
  8
contour_intermed
  0
VERTEX
  8
contour_intermed
 10
287201.142943431
 20
6717346.53446273
  0
VERTEX
  8
contour_intermed
 10
287200.522876951
 20
6717347.14578797
  0
VERTEX
  8
contour_intermed
 10
287200.202899435
 20
6717347.9840446
  0
VERTEX
  8
contour_intermed
 10
287199.862426262
 20
6717349.02122902
  0
VERTEX
  8
contour_intermed
 10
287200.657402201
 20
6717349.82973897
  0
VERTEX
  8
contour_intermed
 10
287202.174472943
 20
6717350.27690041
  0
VERTEX
  8
contour_intermed
 10
287204.092449393
 20
6717350.0980864
  0
VERTEX
  8
contour_intermed
 10
287206.029253336
 20
6717349.46021445
  0
VERTEX
  8
contour_intermed
 10
287207.24450651
 20
6717348.52914811
  0
VERTEX
  8
contour_intermed
 10
287207.566259711
 20
6717347.51984035
  0
VERTEX
  8
contour_intermed
 10
287207.057374499
 20
6717346.6412151
  0
VERTEX
  8
contour_intermed
 10
287206.034902771
 20
6717346.12194688
  0
VERTEX
  8
contour_intermed
 10
287204.945891293
 20
6717346.03889624
  0
VERTEX
  8
contour_intermed
 10
287203.881421389
 20
6717345.9776833
  0
VERTEX
  8
contour_intermed
 10
287202.942016189
 20
6717346.11342363
  0
VERTEX
  8
contour_intermed
 10
287201.984910173
 20
6717346.2124681
  0
VERTEX
  8
contour_intermed
 10
287201.142943431
 20
6717346.53446273
  0
SEQEND
  0
POLYLINE
 66
1
  8
contour
  0
VERTEX
  8
contour
 10
287285
 20
6717384.5
  0
VERTEX
  8
contour
 10
287283.86260201
 20
6717384.45992947
  0
VERTEX
  8
contour
 10
287282.77000999
 20
6717384.5042756
  0
VERTEX
  8
contour
 10
287281.878891987
 20
6717384.49384337
  0
VERTEX
  8
contour
 10
287281.027559522
 20
6717384.76608322
  0
VERTEX
  8
contour
 10
287279.987278962
 20
6717385.15758336
  0
VERTEX
  8
contour
 10
287278.769632651
 20
6717385.63342671
  0
VERTEX
  8
contour
 10
287277.073774646
 20
6717386.2689024
  0
VERTEX
  8
contour
 10
287275.089051419
 20
6717387.02897129
  0
VERTEX
  8
contour
 10
287273.01910928
 20
6717388.00934933
  0
VERTEX
  8
contour
 10
287270.967070037
 20
6717389.2998947
  0
VERTEX
  8
contour
 10
287268.830292082
 20
6717390.74258634
  0
VERTEX
  8
contour
 10
287266.654759967
 20
6717392.41937798
  0
VERTEX
  8
contour
 10
287264.627669191
 20
6717394.09387646
  0
VERTEX
  8
contour
 10
287263.161876805
 20
6717395.36008948
  0
VERTEX
  8
contour
 10
287262.562693458
 20
6717396.24935514
  0
VERTEX
  8
contour
 10
287262.947612397
 20
6717396.88757723
  0
VERTEX
  8
contour
 10
287264.250324016
 20
6717397.49586926
  0
VERTEX
  8
contour
 10
287266.034549457
 20
6717397.90715457
  0
VERTEX
  8
contour
 10
287267.893477886
 20
6717398.21578273
  0
VERTEX
  8
contour
 10
287269.199557421
 20
6717399.11523392
  0
VERTEX
  8
contour
 10
287269.897625218
 20
6717400.40061656
  0
VERTEX
  8
contour
 10
287269.869589583
 20
6717401.94932516
  0
VERTEX
  8
contour
 10
287268.945213294
 20
6717403.62531658
  0
VERTEX
  8
contour
 10
287267.259014199
 20
6717405.34147561
  0
VERTEX
  8
contour
 10
287265.105532682
 20
6717406.8628548
  0
VERTEX
  8
contour
 10
287263.018390998
 20
6717407.96122846
  0
VERTEX
  8
contour
 10
287261.00114102
 20
6717409.03649908
  0
VERTEX
  8
contour
 10
287259
 20
6717410.28785013
  0
VERTEX
  8
contour
 10
287257
 20
6717411.52894531
  0
VERTEX
  8
contour
 10
287255
 20
6717412.78181095
  0
VERTEX
  8
contour
 10
287253
 20
6717414.25314308
  0
VERTEX
  8
contour
 10
287251
 20
6717415.90467937
  0
VERTEX
  8
contour
 10
287249
 20
6717417.75048441
  0
VERTEX
  8
contour
 10
287247
 20
6717419.2577865
  0
VERTEX
  8
contour
 10
287245
 20
6717420.74277795
  0
VERTEX
  8
contour
 10
287243
 20
6717422.01071179
  0
VERTEX
  8
contour
 10
287241
 20
6717422.93860578
  0
VERTEX
  8
contour
 10
287239
 20
6717423.52109603
  0
VERTEX
  8
contour
 10
287237
 20
6717423.75000127
  0
VERTEX
  8
contour
 10
287235
 20
6717423.94612383
  0
VERTEX
  8
contour
 10
287233
 20
6717423.92570614
  0
VERTEX
  8
contour
 10
287231
 20
6717423.93788197
  0
VERTEX
  8
contour
 10
287229
 20
6717423.98294745
  0
VERTEX
  8
contour
 10
287227
 20
6717424.13821705
  0
VERTEX
  8
contour
 10
287225
 20
6717424.61822698
  0
VERTEX
  8
contour
 10
287222.998250436
 20
6717425.39526632
  0
VERTEX
  8
contour
 10
287220.982039222
 20
6717426.63782389
  0
VERTEX
  8
contour
 10
287218.917667641
 20
6717427.81303108
  0
VERTEX
  8
contour
 10
287216.851071165
 20
6717428.50781844
  0
VERTEX
  8
contour
 10
287215.000733359
 20
6717428.63611414
  0
VERTEX
  8
contour
 10
287213.182463138
 20
6717428.01191036
  0
VERTEX
  8
contour
 10
287211.786254897
 20
6717427.30016999
  0
VERTEX
  8
contour
 10
287210.536035231
 20
6717426.45956224
  0
VERTEX
  8
contour
 10
287209.369358507
 20
6717425.58901587
  0
VERTEX
  8
contour
 10
287208.371097478
 20
6717424.78732647
  0
VERTEX
  8
contour
 10
287207.109297837
 20
6717423.89345459
  0
VERTEX
  8
contour
 10
287205.929058334
 20
6717423.20094241
  0
VERTEX
  8
contour
 10
287204.476718238
 20
6717422.63871138
  0
VERTEX
  8
contour
 10
287202.864628362
 20
6717422.42740384
  0
VERTEX
  8
contour
 10
287201.003728531
 20
6717422.44622081
  0
VERTEX
  8
contour
 10
287198.947965409
 20
6717422.54013381
  0
VERTEX
  8
contour
 10
287197.121828858
 20
6717422.61208393
  0
VERTEX
  8
contour
 10
287195.475908975
 20
6717422.83134641
  0
VERTEX
  8
contour
 10
287194.009788591
 20
6717423.13911472
  0
VERTEX
  8
contour
 10
287192.560109212
 20
6717423.54411405
  0
VERTEX
  8
contour
 10
287190.97701926
 20
6717424.37555983
  0
VERTEX
  8
contour
 10
287189.095584713
 20
6717425.56611296
  0
VERTEX
  8
contour
 10
287187.029665274
 20
6717426.72106984
  0
VERTEX
  8
contour
 10
287184.999467524
 20
6717427.46887449
  0
VERTEX
  8
contour
 10
287182.961326279
 20
6717428.21942096
  0
VERTEX
  8
contour
 10
287180.821666694
 20
6717428.99785483
  0
VERTEX
  8
contour
 10
287178.679083476
 20
6717429.81308863
  0
VERTEX
  8
contour
 10
287176.766623788
 20
6717430.42393802
  0
VERTEX
  8
contour
 10
287175.484433063
 20
6717430.77471889
  0
VERTEX
  8
contour
 10
287174.834078179
 20
6717430.3759344
  0
VERTEX
  8
contour
 10
287174.959106856
 20
6717428.80392024
  0
VERTEX
  8
contour
 10
287175.354815481
 20
6717426.77987622
  0
VERTEX
  8
contour
 10
287175.459445766
 20
6717425.19219793
  0
VERTEX
  8
contour
 10
287174.386400488
 20
6717424.54007194
  0
VERTEX
  8
contour
 10
287172.467852637
 20
6717424.66713139
  0
VERTEX
  8
contour
 10
287170.483967017
 20
6717425.20426379
  0
VERTEX
  8
contour
 10
287168.497660977
 20
6717425.44261607
  0
VERTEX
  8
contour
 10
287167.402918987
 20
6717424.98938004
  0
VERTEX
  8
contour
 10
287166.989935112
 20
6717423.48554758
  0
VERTEX
  8
contour
 10
287167.083142108
 20
6717421.75990595
  0
VERTEX
  8
contour
 10
287166.863398782
 20
6717420.36595053
  0
VERTEX
  8
contour
 10
287166.062167374
 20
6717419.10458789
  0
VERTEX
  8
contour
 10
287165.121507808
 20
6717417.93997746
  0
VERTEX
  8
contour
 10
287164.142474814
 20
6717416.78953055
  0
VERTEX
  8
contour
 10
287163.011248094
 20
6717415.87476714
  0
VERTEX
  8
contour
 10
287161.845503787
 20
6717415.18663516
  0
VERTEX
  8
contour
 10
287160.475688329
 20
6717414.60107047
  0
VERTEX
  8
contour
 10
287158.766857698
 20
6717414.17982675
  0
VERTEX
  8
contour
 10
287157.064792136
 20
6717413.85672446
  0
VERTEX
  8
contour
 10
287155.21047132
 20
6717413.44051284
  0
VERTEX
  8
contour
 10
287153.579296175
 20
6717413.21203025
  0
VERTEX
  8
contour
 10
287152.125169768
 20
6717412.98440781
  0
VERTEX
  8
contour
 10
287150.605577711
 20
6717412.98816794
  0
VERTEX
  8
contour
 10
287148.875445233
 20
6717413.07217607
  0
VERTEX
  8
contour
 10
287147.080985035
 20
6717413.22695417
  0
VERTEX
  8
contour
 10
287145.286149821
 20
6717413.20566764
  0
VERTEX
  8
contour
 10
287143.741139602
 20
6717412.99728739
  0
VERTEX
  8
contour
 10
287142.317143607
 20
6717412.83721237
  0
VERTEX
  8
contour
 10
287140.749902933
 20
6717412.87771944
  0
VERTEX
  8
contour
 10
287138.9856729
 20
6717413.05253856
  0
VERTEX
  8
contour
 10
287137.08611476
 20
6717413.23205321
  0
VERTEX
  8
contour
 10
287135.333746801
 20
6717413.52049377
  0
VERTEX
  8
contour
 10
287133.818262474
 20
6717413.47480746
  0
VERTEX
  8
contour
 10
287132.394261208
 20
6717413.54916427
  0
VERTEX
  8
contour
 10
287130.83577053
 20
6717413.7831145
  0
VERTEX
  8
contour
 10
287128.993516711
 20
6717414.44033921
  0
VERTEX
  8
contour
 10
287126.959122184
 20
6717415.07308282
  0
VERTEX
  8
contour
 10
287125.104004345
 20
6717415.29597284
  0
VERTEX
  8
contour
 10
287123.367260258
 20
6717415.20932508
  0
VERTEX
  8
contour
 10
287121.976779919
 20
6717414.81935011
  0
VERTEX
  8
contour
 10
287120.66024665
 20
6717414.02281536
  0
VERTEX
  8
contour
 10
287119.487402709
 20
6717413.36021415
  0
VERTEX
  8
contour
 10
287118.340070846
 20
6717413.09081728
  0
VERTEX
  8
contour
 10
287117.163182567
 20
6717413.19452584
  0
VERTEX
  8
contour
 10
287116.051189382
 20
6717413.90817267
  0
VERTEX
  8
contour
 10
287114.624271402
 20
6717414.6709285
  0
VERTEX
  8
contour
 10
287112.970354788
 20
6717415.37368276
  0
VERTEX
  8
contour
 10
287111.01189303
 20
6717415.29186226
  0
VERTEX
  8
contour
 10
287108.890440873
 20
6717415.32359524
  0
VERTEX
  8
contour
 10
287107.026280305
 20
6717415.67830646
  0
VERTEX
  8
contour
 10
287105.230146385
 20
6717416.52704675
  0
VERTEX
  8
contour
 10
287103.738814203
 20
6717417.78593563
  0
VERTEX
  8
contour
 10
287102.413936521
 20
6717419.31396504
  0
VERTEX
  8
contour
 10
287101.35942992
 20
6717420.92887447
  0
VERTEX
  8
contour
 10
287100.328153578
 20
6717421.92308845
  0
VERTEX
  8
contour
 10
287099.130166094
 20
6717422.70689789
  0
VERTEX
  8
contour
 10
287098.11420175
 20
6717422.8268463
  0
VERTEX
  8
contour
 10
287096.914178013
 20
6717422.24922031
  0
VERTEX
  8
contour
 10
287095.515488727
 20
6717421.58790066
  0
VERTEX
  8
contour
 10
287093.991826818
 20
6717421.02890024
  0
VERTEX
  8
contour
 10
287092.670351947
 20
6717420.81164681
  0
VERTEX
  8
contour
 10
287091.338142354
 20
6717420.65814252
  0
VERTEX
  8
contour
 10
287089.790630212
 20
6717420.59149537
  0
VERTEX
  8
contour
 10
287088.337614152
 20
6717420.57612142
  0
VERTEX
  8
contour
 10
287087.04975157
 20
6717419.85144982
  0
VERTEX
  8
contour
 10
287085.900405329
 20
6717419.03022968
  0
VERTEX
  8
contour
 10
287084.781765578
 20
6717418.22666657
  0
VERTEX
  8
contour
 10
287083.768529049
 20
6717417.48120915
  0
VERTEX
  8
contour
 10
287082.541658914
 20
6717416.67798535
  0
VERTEX
  8
contour
 10
287081.029214306
 20
6717416.08384992
  0
VERTEX
  8
contour
 10
287079.298515474
 20
6717415.80238204
  0
VERTEX
  8
contour
 10
287077.634940152
 20
6717415.37612764
  0
VERTEX
  8
contour
 10
287076.109529909
 20
6717414.8643738
  0
VERTEX
  8
contour
 10
287074.621359281
 20
6717414.27456674
  0
VERTEX
  8
contour
 10
287073.183794132
 20
6717413.73629346
  0
VERTEX
  8
contour
 10
287071.499690119
 20
6717413.23749971
  0
VERTEX
  8
contour
 10
287069.970281265
 20
6717412.72538737
  0
VERTEX
  8
contour
 10
287068.515889128
 20
6717412.32826423
  0
VERTEX
  8
contour
 10
287066.947029136
 20
6717411.93645637
  0
VERTEX
  8
contour
 10
287065.103475439
 20
6717411.61969826
  0
VERTEX
  8
contour
 10
287063.03371683
 20
6717411.46851663
  0
VERTEX
  8
contour
 10
287060.998706844
 20
6717411.33676183
  0
VERTEX
  8
contour
 10
287058.95863023
 20
6717411.24911216
  0
VERTEX
  8
contour
 10
287056.850501128
 20
6717411.19023435
  0
VERTEX
  8
contour
 10
287054.946203042
 20
6717411.10214546
  0
VERTEX
  8
contour
 10
287053.17567344
 20
6717411.05308375
  0
VERTEX
  8
contour
 10
287051.5878934
 20
6717410.93856538
  0
VERTEX
  8
contour
 10
287050.153433179
 20
6717410.8053144
  0
VERTEX
  8
contour
 10
287048.676051667
 20
6717410.76343817
  0
VERTEX
  8
contour
 10
287047.01556704
 20
6717410.88253443
  0
VERTEX
  8
contour
 10
287044.903687788
 20
6717411.11785356
  0
VERTEX
  8
contour
 10
287042.811596157
 20
6717411.51951374
  0
VERTEX
  8
contour
 10
287040.976404957
 20
6717412.18190844
  0
VERTEX
  8
contour
 10
287039.427744664
 20
6717413.10283022
  0
VERTEX
  8
contour
 10
287038.472378922
 20
6717414.34939993
  0
VERTEX
  8
contour
 10
287038.015366967
 20
6717415.90891929
  0
VERTEX
  8
contour
 10
287037.740495397
 20
6717418.1489085
  0
VERTEX
  8
contour
 10
287037.286622428
 20
6717420.3397542
  0
VERTEX
  8
contour
 10
287036.358552228
 20
6717422.22099626
  0
VERTEX
  8
contour
 10
287034.90839723
 20
6717423.92984558
  0
VERTEX
  8
contour
 10
287033.044199016
 20
6717425.42727733
  0
VERTEX
  8
contour
 10
287031.005852053
 20
6717427.1495382
  0
VERTEX
  8
contour
 10
287029.379210537
 20
6717428.43284119
  0
VERTEX
  8
contour
 10
287028.148437734
 20
6717430.16975828
  0
VERTEX
  8
contour
 10
287027.314117121
 20
6717432.16223827
  0
VERTEX
  8
contour
 10
287026.601970508
 20
6717434.04063764
  0
VERTEX
  8
contour
 10
287025.639901177
 20
6717435.70841291
  0
VERTEX
  8
contour
 10
287024.503450351
 20
6717436.96352513
  0
VERTEX
  8
contour
 10
287023.108948784
 20
6717438.08694717
  0
VERTEX
  8
contour
 10
287021.533929561
 20
6717439.11360444
  0
VERTEX
  8
contour
 10
287019.888663143
 20
6717440.2923317
  0
VERTEX
  8
contour
 10
287018.366772286
 20
6717441.73836043
  0
VERTEX
  8
contour
 10
287016.876678982
 20
6717443.26423045
  0
VERTEX
  8
contour
 10
287015.414106735
 20
6717444.35373449
  0
VERTEX
  8
contour
 10
287013.925127514
 20
6717445.0457715
  0
VERTEX
  8
contour
 10
287012.8985485
 20
6717445.19094353
  0
VERTEX
  8
contour
 10
287012.073898516
 20
6717445.40800584
  0
VERTEX
  8
contour
 10
287011.353031066
 20
6717445.64218596
  0
VERTEX
  8
contour
 10
287010.828108064
 20
6717446.11217128
  0
VERTEX
  8
contour
 10
287010.462424583
 20
6717446.7022758
  0
VERTEX
  8
contour
 10
287010.545308775
 20
6717447.47150748
  0
VERTEX
  8
contour
 10
287010.88705987
 20
6717448.24737203
  0
VERTEX
  8
contour
 10
287011.557198238
 20
6717448.86918593
  0
VERTEX
  8
contour
 10
287012.248408799
 20
6717449.80882943
  0
VERTEX
  8
contour
 10
287012.979771844
 20
6717450.87374087
  0
VERTEX
  8
contour
 10
287013.704487433
 20
6717452.23279228
  0
VERTEX
  8
contour
 10
287014.221977217
 20
6717453.75208948
  0
VERTEX
  8
contour
 10
287014.86344217
 20
6717455.11655783
  0
VERTEX
  8
contour
 10
287015.52237876
 20
6717456.45762124
  0
VERTEX
  8
contour
 10
287016.342468483
 20
6717457.63753152
  0
VERTEX
  8
contour
 10
287016.973057577
 20
6717459.00694242
  0
VERTEX
  8
contour
 10
287017.496828312
 20
6717460.48317169
  0
VERTEX
  8
contour
 10
287017.896511351
 20
6717462.08348865
  0
VERTEX
  8
contour
 10
287018.35033331
 20
6717463.62966669
  0
VERTEX
  8
contour
 10
287018.926483031
 20
6717465.05351697
  0
VERTEX
  8
contour
 10
287019.783977543
 20
6717466.19602246
  0
VERTEX
  8
contour
 10
287020.793818325
 20
6717467.18618168
  0
VERTEX
  8
contour
 10
287021.743162268
 20
6717468.23683773
  0
VERTEX
  8
contour
 10
287022.933975445
 20
6717469.04602455
  0
VERTEX
  8
contour
 10
287023.833784719
 20
6717470.14621528
  0
VERTEX
  8
contour
 10
287024.835076309
 20
6717471.14492369
  0
VERTEX
  8
contour
 10
287025.683893516
 20
6717472.29610649
  0
VERTEX
  8
contour
 10
287026.466512992
 20
6717473.51348701
  0
VERTEX
  8
contour
 10
287027.291782734
 20
6717474.68821726
  0
VERTEX
  8
contour
 10
287028.040526924
 20
6717475.93947308
  0
VERTEX
  8
contour
 10
287029.06939109
 20
6717476.91060891
  0
VERTEX
  8
contour
 10
287030.054432972
 20
6717477.92556703
  0
VERTEX
  8
contour
 10
287031.045094235
 20
6717478.93490577
  0
VERTEX
  8
contour
 10
287032.088048443
 20
6717479.89195156
  0
VERTEX
  8
contour
 10
287032.998271589
 20
6717480.98172841
  0
VERTEX
  8
contour
 10
287033.973884125
 20
6717482.00611588
  0
VERTEX
  8
contour
 10
287034.60488274
 20
6717483.37511726
  0
VERTEX
  8
contour
 10
287035.321883414
 20
6717484.65811659
  0
VERTEX
  8
contour
 10
287036.232292661
 20
6717485.74770734
  0
VERTEX
  8
contour
 10
287037.295973901
 20
6717486.6840261
  0
VERTEX
  8
contour
 10
287038.59256535
 20
6717487.38743465
  0
VERTEX
  8
contour
 10
287039.764130594
 20
6717488.21586941
  0
VERTEX
  8
contour
 10
287040.880419233
 20
6717489.09958077
  0
VERTEX
  8
contour
 10
287041.710284366
 20
6717490.26971564
  0
VERTEX
  8
contour
 10
287042.31602411
 20
6717491.66397589
  0
VERTEX
  8
contour
 10
287042.837185108
 20
6717493.14281489
  0
VERTEX
  8
contour
 10
287043.361628892
 20
6717494.61837111
  0
VERTEX
  8
contour
 10
287043.816140447
 20
6717496.16385955
  0
VERTEX
  8
contour
 10
287044.341897127
 20
6717497.63810287
  0
VERTEX
  8
contour
 10
287044.974156979
 20
6717499.00584302
  0
VERTEX
  8
contour
 10
287045.672135018
 20
6717500.30786498
  0
VERTEX
  8
contour
 10
287046.520341042
 20
6717501.45965896
  0
VERTEX
  8
contour
 10
287047.440821268
 20
6717502.53917873
  0
VERTEX
  8
contour
 10
287048.637061576
 20
6717503.34293842
  0
VERTEX
  8
contour
 10
287049.910194423
 20
6717504.07543461
  0
VERTEX
  8
contour
 10
287051.145585955
 20
6717504.87533364
  0
VERTEX
  8
contour
 10
287052.29658903
 20
6717505.83161818
  0
VERTEX
  8
contour
 10
287052.996608692
 20
6717507.03889485
  0
VERTEX
  8
contour
 10
287053.228200129
 20
6717508.57861718
  0
VERTEX
  8
contour
 10
287053.203562487
 20
6717510.19321013
  0
VERTEX
  8
contour
 10
287053.050434877
 20
6717511.78211713
  0
VERTEX
  8
contour
 10
287053.131308912
 20
6717513.17265906
  0
VERTEX
  8
contour
 10
287053.526843452
 20
6717514.39949586
  0
VERTEX
  8
contour
 10
287054.259693451
 20
6717515.64488703
  0
VERTEX
  8
contour
 10
287055.113758382
 20
6717516.84693032
  0
VERTEX
  8
contour
 10
287055.820820388
 20
6717518.15720184
  0
VERTEX
  8
contour
 10
287056.426300715
 20
6717519.55369929
  0
VERTEX
  8
contour
 10
287056.844595898
 20
6717521.1354041
  0
VERTEX
  8
contour
 10
287057.326316203
 20
6717522.6536838
  0
VERTEX
  8
contour
 10
287057.936367446
 20
6717524.04363255
  0
VERTEX
  8
contour
 10
287058.893104295
 20
6717525.08689571
  0
VERTEX
  8
contour
 10
287060.037384565
 20
6717525.94261543
  0
VERTEX
  8
contour
 10
287061.240465448
 20
6717526.74326188
  0
VERTEX
  8
contour
 10
287062.64566643
 20
6717527.36399885
  0
VERTEX
  8
contour
 10
287063.959444539
 20
6717528.14103516
  0
VERTEX
  8
contour
 10
287065.169578554
 20
6717528.94320666
  0
VERTEX
  8
contour
 10
287066.199861679
 20
6717529.80315158
  0
VERTEX
  8
contour
 10
287067.070306097
 20
6717530.55734429
  0
VERTEX
  8
contour
 10
287068.021570868
 20
6717530.97639269
  0
VERTEX
  8
contour
 10
287068.803786058
 20
6717531.35118269
  0
VERTEX
  8
contour
 10
287069.262120227
 20
6717531.71715876
  0
VERTEX
  8
contour
 10
287069.545724338
 20
6717532.28347932
  0
VERTEX
  8
contour
 10
287069.381913597
 20
6717533.12364107
  0
VERTEX
  8
contour
 10
287069.091397904
 20
6717533.99853974
  0
VERTEX
  8
contour
 10
287068.62
 20
6717535
  0
SEQEND
  0
POLYLINE
 66
1
  8
contour
  0
VERTEX
  8
contour
 10
287256.880323442
 20
6717394.8393889
  0
VERTEX
  8
contour
 10
287256.268095687
 20
6717395.33276885
  0
VERTEX
  8
contour
 10
287255.899687633
 20
6717396.13528461
  0
VERTEX
  8
contour
 10
287255.544022627
 20
6717397.3322469
  0
VERTEX
  8
contour
 10
287255.954416013
 20
6717398.53494841
  0
VERTEX
  8
contour
 10
287256.881415005
 20
6717399.22229909
  0
VERTEX
  8
contour
 10
287258.146257513
 20
6717399.1853358
  0
VERTEX
  8
contour
 10
287259.427803892
 20
6717398.48148068
  0
VERTEX
  8
contour
 10
287260.366109907
 20
6717397.14333485
  0
VERTEX
  8
contour
 10
287260.678538865
 20
6717395.86903567
  0
VERTEX
  8
contour
 10
287260.347260033
 20
6717394.98611929
  0
VERTEX
  8
contour
 10
287259.590695961
 20
6717394.51773774
  0
VERTEX
  8
contour
 10
287258.581817034
 20
6717394.66994583
  0
VERTEX
  8
contour
 10
287257.684188791
 20
6717394.65264431
  0
VERTEX
  8
contour
 10
287256.880323442
 20
6717394.8393889
  0
SEQEND
  0
POLYLINE
 66
1
  8
contour_intermed
  0
VERTEX
  8
contour_intermed
 10
287196.16
 20
6717535
  0
VERTEX
  8
contour_intermed
 10
287193.825720882
 20
6717531.83292439
  0
VERTEX
  8
contour_intermed
 10
287191.462910862
 20
6717529.47003464
  0
VERTEX
  8
contour_intermed
 10
287189.020753686
 20
6717527.79618811
  0
VERTEX
  8
contour_intermed
 10
287187.002743717
 20
6717527.23677639
  0
VERTEX
  8
contour_intermed
 10
287185.696338887
 20
6717527.01962754
  0
VERTEX
  8
contour_intermed
 10
287184.617155959
 20
6717526.38373876
  0
VERTEX
  8
contour_intermed
 10
287183.564296313
 20
6717525.50881387
  0
VERTEX
  8
contour_intermed
 10
287182.516737126
 20
6717524.70586032
  0
VERTEX
  8
contour_intermed
 10
287181.104684476
 20
6717523.87719357
  0
VERTEX
  8
contour_intermed
 10
287179.503564895
 20
6717523.36218299
  0
VERTEX
  8
contour_intermed
 10
287177.959698837
 20
6717522.80772682
  0
VERTEX
  8
contour_intermed
 10
287176.607995768
 20
6717522.18515694
  0
VERTEX
  8
contour_intermed
 10
287175.341529455
 20
6717521.48252106
  0
VERTEX
  8
contour_intermed
 10
287174.160534803
 20
6717520.73756291
  0
VERTEX
  8
contour_intermed
 10
287172.94804191
 20
6717520.03247996
  0
VERTEX
  8
contour_intermed
 10
287171.759568245
 20
6717519.419602
  0
VERTEX
  8
contour_intermed
 10
287170.402646763
 20
6717518.83481214
  0
VERTEX
  8
contour_intermed
 10
287168.866669629
 20
6717518.1984551
  0
VERTEX
  8
contour_intermed
 10
287167.456643506
 20
6717517.69083466
  0
VERTEX
  8
contour_intermed
 10
287166.2192145
 20
6717516.77257753
  0
VERTEX
  8
contour_intermed
 10
287165.344962006
 20
6717515.62344585
  0
VERTEX
  8
contour_intermed
 10
287164.771478438
 20
6717514.32457818
  0
VERTEX
  8
contour_intermed
 10
287164.07163025
 20
6717513.08324601
  0
VERTEX
  8
contour_intermed
 10
287163.151771651
 20
6717512.09087394
  0
VERTEX
  8
contour_intermed
 10
287162.072958415
 20
6717510.83944409
  0
VERTEX
  8
contour_intermed
 10
287161.073484662
 20
6717509.80648278
  0
VERTEX
  8
contour_intermed
 10
287160.125468725
 20
6717508.72525776
  0
VERTEX
  8
contour_intermed
 10
287159.069032148
 20
6717507.65477911
  0
VERTEX
  8
contour_intermed
 10
287158.068362229
 20
6717506.80496554
  0
VERTEX
  8
contour_intermed
 10
287156.955694764
 20
6717506.02299205
  0
VERTEX
  8
contour_intermed
 10
287155.600291552
 20
6717505.38704757
  0
VERTEX
  8
contour_intermed
 10
287154.020446542
 20
6717504.77269804
  0
VERTEX
  8
contour_intermed
 10
287152.525168941
 20
6717504.22102839
  0
VERTEX
  8
contour_intermed
 10
287151.116838997
 20
6717503.69090829
  0
VERTEX
  8
contour_intermed
 10
287149.521618731
 20
6717503.18580902
  0
VERTEX
  8
contour_intermed
 10
287147.891543219
 20
6717502.92277175
  0
VERTEX
  8
contour_intermed
 10
287146.484087278
 20
6717502.91311979
  0
VERTEX
  8
contour_intermed
 10
287145.090525889
 20
6717502.83779069
  0
VERTEX
  8
contour_intermed
 10
287143.504483818
 20
6717502.81315824
  0
VERTEX
  8
contour_intermed
 10
287142.034199886
 20
6717502.68177667
  0
VERTEX
  8
contour_intermed
 10
287140.698855834
 20
6717502.20632793
  0
VERTEX
  8
contour_intermed
 10
287139.488091482
 20
6717501.54997341
  0
VERTEX
  8
contour_intermed
 10
287138.388150734
 20
6717500.93463802
  0
VERTEX
  8
contour_intermed
 10
287136.888880854
 20
6717500.2554945
  0
VERTEX
  8
contour_intermed
 10
287135.401231219
 20
6717498.92229454
  0
VERTEX
  8
contour_intermed
 10
287133.515353034
 20
6717497.03035217
  0
VERTEX
  8
contour_intermed
 10
287131.720171151
 20
6717494.70557637
  0
VERTEX
  8
contour_intermed
 10
287130.679587771
 20
6717492.15341933
  0
VERTEX
  8
contour_intermed
 10
287130.525770595
 20
6717490.08358979
  0
VERTEX
  8
contour_intermed
 10
287131.991400039
 20
6717488.50435808
  0
VERTEX
  8
contour_intermed
 10
287133.893466169
 20
6717487.21213406
  0
VERTEX
  8
contour_intermed
 10
287135.822296781
 20
6717485.34320651
  0
VERTEX
  8
contour_intermed
 10
287137.33254403
 20
6717482.66968499
  0
VERTEX
  8
contour_intermed
 10
287138.209337807
 20
6717480.09655113
  0
VERTEX
  8
contour_intermed
 10
287138.927980967
 20
6717478.1328331
  0
VERTEX
  8
contour_intermed
 10
287139.641340544
 20
6717476.97318258
  0
VERTEX
  8
contour_intermed
 10
287140.653382454
 20
6717476.29034452
  0
VERTEX
  8
contour_intermed
 10
287141.817888638
 20
6717475.17377163
  0
VERTEX
  8
contour_intermed
 10
287142.961822744
 20
6717473.42346784
  0
VERTEX
  8
contour_intermed
 10
287144.325592029
 20
6717471.78774331
  0
VERTEX
  8
contour_intermed
 10
287145.569711445
 20
6717471.3462885
  0
VERTEX
  8
contour_intermed
 10
287146.901060398
 20
6717472.53451743
  0
VERTEX
  8
contour_intermed
 10
287148.37318466
 20
6717474.7219248
  0
VERTEX
  8
contour_intermed
 10
287149.907044052
 20
6717476.97274728
  0
VERTEX
  8
contour_intermed
 10
287151.343957761
 20
6717478.86380539
  0
VERTEX
  8
contour_intermed
 10
287152.611161652
 20
6717479.85952592
  0
VERTEX
  8
contour_intermed
 10
287154.260439639
 20
6717480.00170692
  0
VERTEX
  8
contour_intermed
 10
287156.190402041
 20
6717479.67006493
  0
VERTEX
  8
contour_intermed
 10
287158.257470628
 20
6717478.67953762
  0
VERTEX
  8
contour_intermed
 10
287160.139301293
 20
6717477.10628359
  0
VERTEX
  8
contour_intermed
 10
287161.586637818
 20
6717475.02221796
  0
VERTEX
  8
contour_intermed
 10
287162.351928166
 20
6717472.93235011
  0
VERTEX
  8
contour_intermed
 10
287162.337244961
 20
6717471.10540009
  0
VERTEX
  8
contour_intermed
 10
287161.81062724
 20
6717469.42487859
  0
VERTEX
  8
contour_intermed
 10
287161.129235665
 20
6717467.85898737
  0
VERTEX
  8
contour_intermed
 10
287160.450827664
 20
6717466.4255061
  0
VERTEX
  8
contour_intermed
 10
287159.925083055
 20
6717464.9764373
  0
VERTEX
  8
contour_intermed
 10
287159.484678587
 20
6717463.43575874
  0
VERTEX
  8
contour_intermed
 10
287158.83611379
 20
6717461.97316941
  0
VERTEX
  8
contour_intermed
 10
287158.076141302
 20
6717460.86203808
  0
VERTEX
  8
contour_intermed
 10
287156.910944208
 20
6717459.98575938
  0
VERTEX
  8
contour_intermed
 10
287155.670248821
 20
6717459.1517427
  0
VERTEX
  8
contour_intermed
 10
287154.507154722
 20
6717458.49088943
  0
VERTEX
  8
contour_intermed
 10
287153.122457726
 20
6717457.79802256
  0
VERTEX
  8
contour_intermed
 10
287151.932623993
 20
6717457.17878819
  0
VERTEX
  8
contour_intermed
 10
287150.557097037
 20
6717456.35740204
  0
VERTEX
  8
contour_intermed
 10
287149.352190646
 20
6717455.5611916
  0
VERTEX
  8
contour_intermed
 10
287148.206146769
 20
6717454.79177341
  0
VERTEX
  8
contour_intermed
 10
287146.87313388
 20
6717453.95658322
  0
VERTEX
  8
contour_intermed
 10
287145.773614652
 20
6717453.11585158
  0
VERTEX
  8
contour_intermed
 10
287144.779880733
 20
6717452.01536145
  0
VERTEX
  8
contour_intermed
 10
287144.13939809
 20
6717450.72001563
  0
VERTEX
  8
contour_intermed
 10
287144.048635996
 20
6717449.04234588
  0
VERTEX
  8
contour_intermed
 10
287144.529227167
 20
6717447.08712544
  0
VERTEX
  8
contour_intermed
 10
287145.517882633
 20
6717444.97709231
  0
VERTEX
  8
contour_intermed
 10
287146.729933788
 20
6717442.81886751
  0
VERTEX
  8
contour_intermed
 10
287147.908609464
 20
6717440.88605623
  0
VERTEX
  8
contour_intermed
 10
287148.623868726
 20
6717439.065514
  0
VERTEX
  8
contour_intermed
 10
287148.822163767
 20
6717437.69090292
  0
VERTEX
  8
contour_intermed
 10
287148.236196134
 20
6717436.54570108
  0
VERTEX
  8
contour_intermed
 10
287147.195694153
 20
6717435.45993135
  0
VERTEX
  8
contour_intermed
 10
287146.259849592
 20
6717434.35478385
  0
VERTEX
  8
contour_intermed
 10
287145.973225826
 20
6717432.8621224
  0
VERTEX
  8
contour_intermed
 10
287146.533715042
 20
6717431.47927211
  0
VERTEX
  8
contour_intermed
 10
287147.912599321
 20
6717430.13050043
  0
VERTEX
  8
contour_intermed
 10
287149.959416538
 20
6717429.19799874
  0
VERTEX
  8
contour_intermed
 10
287152.206754001
 20
6717428.70052102
  0
VERTEX
  8
contour_intermed
 10
287154.388632907
 20
6717428.33186706
  0
VERTEX
  8
contour_intermed
 10
287156.212158063
 20
6717427.91405796
  0
VERTEX
  8
contour_intermed
 10
287158.171880601
 20
6717427.28074324
  0
VERTEX
  8
contour_intermed
 10
287159.783778151
 20
6717426.29423929
  0
VERTEX
  8
contour_intermed
 10
287160.860710701
 20
6717424.769024
  0
VERTEX
  8
contour_intermed
 10
287161.493750044
 20
6717423.04973363
  0
VERTEX
  8
contour_intermed
 10
287161.48197842
 20
6717421.331441
  0
VERTEX
  8
contour_intermed
 10
287160.71105237
 20
6717420.30155818
  0
VERTEX
  8
contour_intermed
 10
287159.141469357
 20
6717419.75205041
  0
VERTEX
  8
contour_intermed
 10
287157.222807214
 20
6717419.44562519
  0
VERTEX
  8
contour_intermed
 10
287155.389653069
 20
6717419.37930257
  0
VERTEX
  8
contour_intermed
 10
287153.960257101
 20
6717419.0494458
  0
VERTEX
  8
contour_intermed
 10
287152.723563454
 20
6717418.82297652
  0
VERTEX
  8
contour_intermed
 10
287151.517583374
 20
6717418.67423112
  0
VERTEX
  8
contour_intermed
 10
287150.164204289
 20
6717418.74696383
  0
VERTEX
  8
contour_intermed
 10
287148.610232036
 20
6717418.96689092
  0
VERTEX
  8
contour_intermed
 10
287146.859358128
 20
6717419.34209006
  0
VERTEX
  8
contour_intermed
 10
287144.777227442
 20
6717420.34120786
  0
VERTEX
  8
contour_intermed
 10
287142.7927547
 20
6717421.8493533
  0
VERTEX
  8
contour_intermed
 10
287141.448366554
 20
6717423.62006576
  0
VERTEX
  8
contour_intermed
 10
287140.796666629
 20
6717425.66258277
  0
VERTEX
  8
contour_intermed
 10
287140.651933066
 20
6717427.57231702
  0
VERTEX
  8
contour_intermed
 10
287140.649395851
 20
6717429.06333876
  0
VERTEX
  8
contour_intermed
 10
287140.190255632
 20
6717429.80526359
  0
VERTEX
  8
contour_intermed
 10
287139.168281365
 20
6717430.08887763
  0
VERTEX
  8
contour_intermed
 10
287137.502823753
 20
6717430.01148778
  0
VERTEX
  8
contour_intermed
 10
287135.77526048
 20
6717429.38669543
  0
VERTEX
  8
contour_intermed
 10
287134.267418827
 20
6717428.76682046
  0
VERTEX
  8
contour_intermed
 10
287132.928154628
 20
6717428.17353026
  0
VERTEX
  8
contour_intermed
 10
287131.497773961
 20
6717427.66912197
  0
VERTEX
  8
contour_intermed
 10
287129.922635367
 20
6717427.12666768
  0
VERTEX
  8
contour_intermed
 10
287128.45166069
 20
6717426.7460977
  0
VERTEX
  8
contour_intermed
 10
287126.87359462
 20
6717426.45437667
  0
VERTEX
  8
contour_intermed
 10
287124.997665875
 20
6717426.15313929
  0
VERTEX
  8
contour_intermed
 10
287122.943107618
 20
6717425.78739294
  0
VERTEX
  8
contour_intermed
 10
287121.113785148
 20
6717425.37037193
  0
VERTEX
  8
contour_intermed
 10
287119.433924744
 20
6717425.25155838
  0
VERTEX
  8
contour_intermed
 10
287117.865929502
 20
6717425.14614964
  0
VERTEX
  8
contour_intermed
 10
287116.478838586
 20
6717425.25153452
  0
VERTEX
  8
contour_intermed
 10
287115.077470874
 20
6717425.14455924
  0
VERTEX
  8
contour_intermed
 10
287113.469611882
 20
6717425.05272577
  0
VERTEX
  8
contour_intermed
 10
287112.104853825
 20
6717424.89006496
  0
VERTEX
  8
contour_intermed
 10
287110.842060529
 20
6717425.30968196
  0
VERTEX
  8
contour_intermed
 10
287109.616552161
 20
6717426.30060968
  0
VERTEX
  8
contour_intermed
 10
287108.1972576
 20
6717427.69010188
  0
VERTEX
  8
contour_intermed
 10
287106.810746281
 20
6717429.17660953
  0
VERTEX
  8
contour_intermed
 10
287105.347612687
 20
6717429.70267798
  0
VERTEX
  8
contour_intermed
 10
287103.797961256
 20
6717429.54072631
  0
VERTEX
  8
contour_intermed
 10
287102.496826925
 20
6717428.66751704
  0
VERTEX
  8
contour_intermed
 10
287101.189883211
 20
6717427.76085966
  0
VERTEX
  8
contour_intermed
 10
287100.070051338
 20
6717427.11035275
  0
VERTEX
  8
contour_intermed
 10
287098.715495157
 20
6717426.32665682
  0
VERTEX
  8
contour_intermed
 10
287097.479637893
 20
6717425.51174166
  0
VERTEX
  8
contour_intermed
 10
287096.36489015
 20
6717424.64171488
  0
VERTEX
  8
contour_intermed
 10
287095.101910169
 20
6717423.77634862
  0
VERTEX
  8
contour_intermed
 10
287093.865417194
 20
6717423.24823919
  0
VERTEX
  8
contour_intermed
 10
287092.349090533
 20
6717422.86783558
  0
VERTEX
  8
contour_intermed
 10
287090.906193518
 20
6717422.9110684
  0
VERTEX
  8
contour_intermed
 10
287089.298887947
 20
6717422.92407668
  0
VERTEX
  8
contour_intermed
 10
287087.875774783
 20
6717422.93461438
  0
VERTEX
  8
contour_intermed
 10
287086.609814425
 20
6717422.3803352
  0
VERTEX
  8
contour_intermed
 10
287085.41706001
 20
6717421.52633275
  0
VERTEX
  8
contour_intermed
 10
287084.387724204
 20
6717420.68744505
  0
VERTEX
  8
contour_intermed
 10
287082.997269172
 20
6717419.759952
  0
VERTEX
  8
contour_intermed
 10
287081.793216446
 20
6717419.137867
  0
VERTEX
  8
contour_intermed
 10
287080.499268098
 20
6717418.42710331
  0
VERTEX
  8
contour_intermed
 10
287079.251026447
 20
6717417.87986533
  0
VERTEX
  8
contour_intermed
 10
287077.956291049
 20
6717417.13342778
  0
VERTEX
  8
contour_intermed
 10
287076.597882202
 20
6717416.38243842
  0
VERTEX
  8
contour_intermed
 10
287075.233959187
 20
6717415.79881984
  0
VERTEX
  8
contour_intermed
 10
287073.821943347
 20
6717415.2781882
  0
VERTEX
  8
contour_intermed
 10
287072.323223448
 20
6717414.92270705
  0
VERTEX
  8
contour_intermed
 10
287070.705784691
 20
6717414.7163522
  0
VERTEX
  8
contour_intermed
 10
287069.042036957
 20
6717414.74876817
  0
VERTEX
  8
contour_intermed
 10
287067.166718955
 20
6717414.80593087
  0
VERTEX
  8
contour_intermed
 10
287065.476517519
 20
6717414.85084207
  0
VERTEX
  8
contour_intermed
 10
287063.962566573
 20
6717414.96363212
  0
VERTEX
  8
contour_intermed
 10
287062.393818712
 20
6717415.0263931
  0
VERTEX
  8
contour_intermed
 10
287060.945407843
 20
6717415.12833764
  0
VERTEX
  8
contour_intermed
 10
287059.303637842
 20
6717414.98074879
  0
VERTEX
  8
contour_intermed
 10
287057.678216904
 20
6717414.84930973
  0
VERTEX
  8
contour_intermed
 10
287056.230099644
 20
6717414.53379395
  0
VERTEX
  8
contour_intermed
 10
287054.710175882
 20
6717413.99774243
  0
VERTEX
  8
contour_intermed
 10
287052.965021423
 20
6717413.62195233
  0
VERTEX
  8
contour_intermed
 10
287050.990575723
 20
6717413.30794433
  0
VERTEX
  8
contour_intermed
 10
287049.154514065
 20
6717413.15459114
  0
VERTEX
  8
contour_intermed
 10
287047.484026662
 20
6717412.9720916
  0
VERTEX
  8
contour_intermed
 10
287045.869826489
 20
6717413.07670496
  0
VERTEX
  8
contour_intermed
 10
287044.380202811
 20
6717413.51420334
  0
VERTEX
  8
contour_intermed
 10
287042.925223054
 20
6717414.6027315
  0
VERTEX
  8
contour_intermed
 10
287041.686518978
 20
6717416.07928388
  0
VERTEX
  8
contour_intermed
 10
287040.875829591
 20
6717417.69541129
  0
VERTEX
  8
contour_intermed
 10
287040.564982364
 20
6717419.22586498
  0
VERTEX
  8
contour_intermed
 10
287040.672866015
 20
6717420.57757497
  0
VERTEX
  8
contour_intermed
 10
287040.749355066
 20
6717422.07231207
  0
VERTEX
  8
contour_intermed
 10
287041.009420202
 20
6717423.32321071
  0
VERTEX
  8
contour_intermed
 10
287041.495566334
 20
6717424.45409863
  0
VERTEX
  8
contour_intermed
 10
287042.418724595
 20
6717425.48656477
  0
VERTEX
  8
contour_intermed
 10
287043.646032601
 20
6717426.36852721
  0
VERTEX
  8
contour_intermed
 10
287044.713643388
 20
6717427.51056894
  0
VERTEX
  8
contour_intermed
 10
287045.473466651
 20
6717428.87586416
  0
VERTEX
  8
contour_intermed
 10
287045.817128186
 20
6717430.47861931
  0
VERTEX
  8
contour_intermed
 10
287045.668266521
 20
6717431.91215157
  0
VERTEX
  8
contour_intermed
 10
287045.1275802
 20
6717432.82581033
  0
VERTEX
  8
contour_intermed
 10
287044.205904296
 20
6717432.9522023
  0
VERTEX
  8
contour_intermed
 10
287042.881887443
 20
6717432.40802259
  0
VERTEX
  8
contour_intermed
 10
287041.123838204
 20
6717432.04407372
  0
VERTEX
  8
contour_intermed
 10
287039.023592763
 20
6717431.94702361
  0
VERTEX
  8
contour_intermed
 10
287036.812766125
 20
6717432.24601345
  0
VERTEX
  8
contour_intermed
 10
287034.812140951
 20
6717432.79899024
  0
VERTEX
  8
contour_intermed
 10
287033.139305786
 20
6717433.70567898
  0
VERTEX
  8
contour_intermed
 10
287031.760449386
 20
6717434.82759256
  0
VERTEX
  8
contour_intermed
 10
287030.623711152
 20
6717435.96220499
  0
VERTEX
  8
contour_intermed
 10
287029.79249542
 20
6717437.21106115
  0
VERTEX
  8
contour_intermed
 10
287028.78452804
 20
6717439.04550573
  0
VERTEX
  8
contour_intermed
 10
287027.677724634
 20
6717440.70660252
  0
VERTEX
  8
contour_intermed
 10
287026.44366852
 20
6717442.35550678
  0
VERTEX
  8
contour_intermed
 10
287025.494546039
 20
6717443.98302311
  0
VERTEX
  8
contour_intermed
 10
287024.6191008
 20
6717445.54083885
  0
VERTEX
  8
contour_intermed
 10
287023.593481501
 20
6717447.04656161
  0
VERTEX
  8
contour_intermed
 10
287022.704987925
 20
6717447.83783496
  0
VERTEX
  8
contour_intermed
 10
287021.772876151
 20
6717448.49167724
  0
VERTEX
  8
contour_intermed
 10
287021.182971443
 20
6717448.68169733
  0
VERTEX
  8
contour_intermed
 10
287020.842361133
 20
6717448.90335765
  0
VERTEX
  8
contour_intermed
 10
287020.775822692
 20
6717449.10307961
  0
VERTEX
  8
contour_intermed
 10
287020.844650867
 20
6717449.62721872
  0
VERTEX
  8
contour_intermed
 10
287020.825400438
 20
6717450.52630775
  0
VERTEX
  8
contour_intermed
 10
287020.796297254
 20
6717451.68849841
  0
VERTEX
  8
contour_intermed
 10
287020.7501357
 20
6717452.92241443
  0
VERTEX
  8
contour_intermed
 10
287020.943389431
 20
6717453.71762612
  0
VERTEX
  8
contour_intermed
 10
287021.384710373
 20
6717454.39901251
  0
VERTEX
  8
contour_intermed
 10
287022.110347927
 20
6717454.72689547
  0
VERTEX
  8
contour_intermed
 10
287023.224243796
 20
6717454.9672656
  0
VERTEX
  8
contour_intermed
 10
287024.425106561
 20
6717455.46067042
  0
VERTEX
  8
contour_intermed
 10
287025.448526742
 20
6717456.45480451
  0
VERTEX
  8
contour_intermed
 10
287026.116186301
 20
6717457.84585292
  0
VERTEX
  8
contour_intermed
 10
287026.870228272
 20
6717459.10802216
  0
VERTEX
  8
contour_intermed
 10
287027.712021865
 20
6717460.26797814
  0
VERTEX
  8
contour_intermed
 10
287028.654525833
 20
6717461.32547417
  0
VERTEX
  8
contour_intermed
 10
287029.463880642
 20
6717462.51611936
  0
VERTEX
  8
contour_intermed
 10
287030.108641647
 20
6717463.87135835
  0
VERTEX
  8
contour_intermed
 10
287030.51835165
 20
6717465.46164835
  0
VERTEX
  8
contour_intermed
 10
287030.935167334
 20
6717467.04483267
  0
VERTEX
  8
contour_intermed
 10
287031.577737059
 20
6717468.40226294
  0
VERTEX
  8
contour_intermed
 10
287032.372236953
 20
6717469.60776305
  0
VERTEX
  8
contour_intermed
 10
287033.389946033
 20
6717470.59005397
  0
VERTEX
  8
contour_intermed
 10
287034.266301853
 20
6717471.71369815
  0
VERTEX
  8
contour_intermed
 10
287035.000505142
 20
6717472.97949486
  0
VERTEX
  8
contour_intermed
 10
287035.610933243
 20
6717474.36906676
  0
VERTEX
  8
contour_intermed
 10
287036.268414721
 20
6717475.71158528
  0
VERTEX
  8
contour_intermed
 10
287037.161103698
 20
6717476.8188963
  0
VERTEX
  8
contour_intermed
 10
287038.297779985
 20
6717477.68222001
  0
VERTEX
  8
contour_intermed
 10
287039.67182429
 20
6717478.30817571
  0
VERTEX
  8
contour_intermed
 10
287041.139211535
 20
6717478.84078847
  0
VERTEX
  8
contour_intermed
 10
287042.340587255
 20
6717479.63941274
  0
VERTEX
  8
contour_intermed
 10
287043.375149606
 20
6717480.60485039
  0
VERTEX
  8
contour_intermed
 10
287044.212538841
 20
6717481.76746116
  0
VERTEX
  8
contour_intermed
 10
287045.095970801
 20
6717482.8840292
  0
VERTEX
  8
contour_intermed
 10
287046.176267445
 20
6717483.80373255
  0
VERTEX
  8
contour_intermed
 10
287047.411080304
 20
6717484.56891969
  0
VERTEX
  8
contour_intermed
 10
287048.750804264
 20
6717485.22919574
  0
VERTEX
  8
contour_intermed
 10
287049.996773549
 20
6717485.98322645
  0
VERTEX
  8
contour_intermed
 10
287051.21287374
 20
6717486.76712626
  0
VERTEX
  8
contour_intermed
 10
287052.272036695
 20
6717487.71427695
  0
VERTEX
  8
contour_intermed
 10
287053.26448655
 20
6717488.76908029
  0
VERTEX
  8
contour_intermed
 10
287054.137645827
 20
6717490.0682695
  0
VERTEX
  8
contour_intermed
 10
287054.930397304
 20
6717491.3409532
  0
VERTEX
  8
contour_intermed
 10
287055.20044842
 20
6717492.75468956
  0
VERTEX
  8
contour_intermed
 10
287055.068669533
 20
6717494.02691962
  0
VERTEX
  8
contour_intermed
 10
287054.418585109
 20
6717495.35695604
  0
VERTEX
  8
contour_intermed
 10
287053.607924613
 20
6717496.56526797
  0
VERTEX
  8
contour_intermed
 10
287053.113277236
 20
6717497.60741218
  0
VERTEX
  8
contour_intermed
 10
287053.069883078
 20
6717498.85189501
  0
VERTEX
  8
contour_intermed
 10
287053.731522879
 20
6717500.05169217
  0
VERTEX
  8
contour_intermed
 10
287054.676538392
 20
6717501.24778981
  0
VERTEX
  8
contour_intermed
 10
287055.761764039
 20
6717502.21161805
  0
VERTEX
  8
contour_intermed
 10
287056.926027755
 20
6717503.05397224
  0
VERTEX
  8
contour_intermed
 10
287058.112441879
 20
6717503.86755812
  0
VERTEX
  8
contour_intermed
 10
287059.288803133
 20
6717504.69119687
  0
VERTEX
  8
contour_intermed
 10
287060.211477958
 20
6717505.76852204
  0
VERTEX
  8
contour_intermed
 10
287060.782498693
 20
6717507.19750131
  0
VERTEX
  8
contour_intermed
 10
287061.202118253
 20
6717508.77788175
  0
VERTEX
  8
contour_intermed
 10
287061.679333291
 20
6717510.30066671
  0
VERTEX
  8
contour_intermed
 10
287062.283721462
 20
6717511.69627854
  0
VERTEX
  8
contour_intermed
 10
287063.188653017
 20
6717512.79134698
  0
VERTEX
  8
contour_intermed
 10
287064.335800829
 20
6717513.64419917
  0
VERTEX
  8
contour_intermed
 10
287065.597651353
 20
6717514.38234865
  0
VERTEX
  8
contour_intermed
 10
287066.73846759
 20
6717515.2465529
  0
VERTEX
  8
contour_intermed
 10
287067.593664616
 20
6717516.42403394
  0
VERTEX
  8
contour_intermed
 10
287068.31351202
 20
6717517.81421954
  0
VERTEX
  8
contour_intermed
 10
287068.883751427
 20
6717519.22448716
  0
VERTEX
  8
contour_intermed
 10
287069.806256902
 20
6717520.19374393
  0
VERTEX
  8
contour_intermed
 10
287070.71437904
 20
6717520.71840045
  0
VERTEX
  8
contour_intermed
 10
287072.062236636
 20
6717520.55692474
  0
VERTEX
  8
contour_intermed
 10
287073.774077794
 20
6717519.83574136
  0
VERTEX
  8
contour_intermed
 10
287075.593671163
 20
6717519.03106246
  0
VERTEX
  8
contour_intermed
 10
287077.532312037
 20
6717518.53391126
  0
VERTEX
  8
contour_intermed
 10
287079.331304597
 20
6717518.42575727
  0
VERTEX
  8
contour_intermed
 10
287081.41944138
 20
6717518.2274053
  0
VERTEX
  8
contour_intermed
 10
287083.409306203
 20
6717518.14679729
  0
VERTEX
  8
contour_intermed
 10
287084.918528599
 20
6717518.81845894
  0
VERTEX
  8
contour_intermed
 10
287086.589229727
 20
6717520.35122785
  0
VERTEX
  8
contour_intermed
 10
287088.009210988
 20
6717522.68207344
  0
VERTEX
  8
contour_intermed
 10
287089.881004173
 20
6717525.69501495
  0
VERTEX
  8
contour_intermed
 10
287091.909494438
 20
6717528.49816731
  0
VERTEX
  8
contour_intermed
 10
287094.368002774
 20
6717530.15930087
  0
VERTEX
  8
contour_intermed
 10
287097.609547786
 20
6717530.40870674
  0
VERTEX
  8
contour_intermed
 10
287100.726908562
 20
6717529.68844684
  0
VERTEX
  8
contour_intermed
 10
287104.205970129
 20
6717528.7121896
  0
VERTEX
  8
contour_intermed
 10
287107.187736299
 20
6717527.77972879
  0
VERTEX
  8
contour_intermed
 10
287109.856945116
 20
6717528.01941571
  0
VERTEX
  8
contour_intermed
 10
287111.647488699
 20
6717528.95679943
  0
VERTEX
  8
contour_intermed
 10
287112.363411768
 20
6717530.85058121
  0
VERTEX
  8
contour_intermed
 10
287113.192203942
 20
6717532.88213509
  0
VERTEX
  8
contour_intermed
 10
287113.76
 20
6717535
  0
SEQEND
  0
POLYLINE
 66
1
  8
contour_intermed
  0
VERTEX
  8
contour_intermed
 10
287187.350659758
 20
6717434.21495987
  0
VERTEX
  8
contour_intermed
 10
287186.685245797
 20
6717435.0863016
  0
VERTEX
  8
contour_intermed
 10
287186.247559907
 20
6717436.02652771
  0
VERTEX
  8
contour_intermed
 10
287185.844724127
 20
6717437.02116017
  0
VERTEX
  8
contour_intermed
 10
287185.923309834
 20
6717438.29767465
  0
VERTEX
  8
contour_intermed
 10
287186.396408389
 20
6717439.53707217
  0
VERTEX
  8
contour_intermed
 10
287187.061181232
 20
6717440.82381832
  0
VERTEX
  8
contour_intermed
 10
287187.959844092
 20
6717441.99364184
  0
VERTEX
  8
contour_intermed
 10
287189.044238959
 20
6717442.93423968
  0
VERTEX
  8
contour_intermed
 10
287190.140262199
 20
6717443.85945438
  0
VERTEX
  8
contour_intermed
 10
287191.541496866
 20
6717444.55405002
  0
VERTEX
  8
contour_intermed
 10
287193.388489178
 20
6717444.93165569
  0
VERTEX
  8
contour_intermed
 10
287195.766446151
 20
6717444.71780167
  0
VERTEX
  8
contour_intermed
 10
287197.953521029
 20
6717444.01063801
  0
VERTEX
  8
contour_intermed
 10
287199.92474978
 20
6717442.9412695
  0
VERTEX
  8
contour_intermed
 10
287201.268227072
 20
6717441.41658956
  0
VERTEX
  8
contour_intermed
 10
287201.585812706
 20
6717439.72586425
  0
VERTEX
  8
contour_intermed
 10
287201.121534734
 20
6717438.36671279
  0
VERTEX
  8
contour_intermed
 10
287200.140275895
 20
6717437.02733617
  0
VERTEX
  8
contour_intermed
 10
287199.37884155
 20
6717435.8502544
  0
VERTEX
  8
contour_intermed
 10
287198.456699432
 20
6717434.53698712
  0
VERTEX
  8
contour_intermed
 10
287197.226583756
 20
6717433.58143106
  0
VERTEX
  8
contour_intermed
 10
287196.075396391
 20
6717432.87050668
  0
VERTEX
  8
contour_intermed
 10
287194.734087189
 20
6717432.27753139
  0
VERTEX
  8
contour_intermed
 10
287193.31898455
 20
6717432.08926433
  0
VERTEX
  8
contour_intermed
 10
287191.943817621
 20
6717432.00005585
  0
VERTEX
  8
contour_intermed
 10
287190.798593506
 20
6717432.09531949
  0
VERTEX
  8
contour_intermed
 10
287189.801484848
 20
6717432.35985094
  0
VERTEX
  8
contour_intermed
 10
287189.001633796
 20
6717432.8405134
  0
VERTEX
  8
contour_intermed
 10
287188.155478921
 20
6717433.43372075
  0
VERTEX
  8
contour_intermed
 10
287187.350659758
 20
6717434.21495987
  0
SEQEND
  0
POLYLINE
 66
1
  8
contour_intermed
  0
VERTEX
  8
contour_intermed
 10
287203.326976295
 20
6717446.4350794
  0
VERTEX
  8
contour_intermed
 10
287202.915605081
 20
6717446.88374001
  0
VERTEX
  8
contour_intermed
 10
287202.912856772
 20
6717447.33469103
  0
VERTEX
  8
contour_intermed
 10
287202.932509621
 20
6717447.89407626
  0
VERTEX
  8
contour_intermed
 10
287203.685205021
 20
6717448.52348636
  0
VERTEX
  8
contour_intermed
 10
287204.833982247
 20
6717449.09587261
  0
VERTEX
  8
contour_intermed
 10
287206.417233705
 20
6717449.50569165
  0
VERTEX
  8
contour_intermed
 10
287208.403555879
 20
6717449.68269616
  0
VERTEX
  8
contour_intermed
 10
287210.509329639
 20
6717449.55026114
  0
VERTEX
  8
contour_intermed
 10
287212.640157538
 20
6717449.23545732
  0
VERTEX
  8
contour_intermed
 10
287214.526013995
 20
6717449.06883733
  0
VERTEX
  8
contour_intermed
 10
287215.954394489
 20
6717449.05764595
  0
VERTEX
  8
contour_intermed
 10
287217.259445098
 20
6717449.11836766
  0
VERTEX
  8
contour_intermed
 10
287218.752489851
 20
6717449.07053021
  0
VERTEX
  8
contour_intermed
 10
287220.258796751
 20
6717448.65452825
  0
VERTEX
  8
contour_intermed
 10
287221.92202474
 20
6717447.81237224
  0
VERTEX
  8
contour_intermed
 10
287223.429593899
 20
6717446.84494666
  0
VERTEX
  8
contour_intermed
 10
287224.934311577
 20
6717445.88886211
  0
VERTEX
  8
contour_intermed
 10
287225.975012701
 20
6717445.19467383
  0
VERTEX
  8
contour_intermed
 10
287226.628124791
 20
6717444.76326836
  0
VERTEX
  8
contour_intermed
 10
287227.656097897
 20
6717444.12293342
  0
VERTEX
  8
contour_intermed
 10
287228.420449447
 20
6717443.00004968
  0
VERTEX
  8
contour_intermed
 10
287228.957911104
 20
6717441.12208699
  0
VERTEX
  8
contour_intermed
 10
287229.035210023
 20
6717439.37598772
  0
VERTEX
  8
contour_intermed
 10
287228.688789141
 20
6717438.1466399
  0
VERTEX
  8
contour_intermed
 10
287227.748540354
 20
6717437.38520282
  0
VERTEX
  8
contour_intermed
 10
287226.230700301
 20
6717436.92723403
  0
VERTEX
  8
contour_intermed
 10
287224.600548342
 20
6717436.54550593
  0
VERTEX
  8
contour_intermed
 10
287222.838442875
 20
6717436.43921264
  0
VERTEX
  8
contour_intermed
 10
287220.948519512
 20
6717436.48329616
  0
VERTEX
  8
contour_intermed
 10
287219.072262426
 20
6717437.21322954
  0
VERTEX
  8
contour_intermed
 10
287217.658876568
 20
6717438.40809191
  0
VERTEX
  8
contour_intermed
 10
287216.532624905
 20
6717440.04145517
  0
VERTEX
  8
contour_intermed
 10
287215.547571682
 20
6717441.72357856
  0
VERTEX
  8
contour_intermed
 10
287214.428166349
 20
6717443.00154293
  0
VERTEX
  8
contour_intermed
 10
287212.791979643
 20
6717443.88467939
  0
VERTEX
  8
contour_intermed
 10
287211.046400959
 20
6717444.14872323
  0
VERTEX
  8
contour_intermed
 10
287209.237122299
 20
6717444.33778443
  0
VERTEX
  8
contour_intermed
 10
287207.808703016
 20
6717444.53940096
  0
VERTEX
  8
contour_intermed
 10
287206.723280013
 20
6717444.79901274
  0
VERTEX
  8
contour_intermed
 10
287205.788136143
 20
6717445.07617531
  0
VERTEX
  8
contour_intermed
 10
287204.994606087
 20
6717445.52285268
  0
VERTEX
  8
contour_intermed
 10
287204.074868599
 20
6717445.97497567
  0
VERTEX
  8
contour_intermed
 10
287203.326976295
 20
6717446.4350794
  0
SEQEND
  0
POLYLINE
 66
1
  8
contour_intermed
  0
VERTEX
  8
contour_intermed
 10
287285
 20
6717404.28
  0
VERTEX
  8
contour_intermed
 10
287283.927220683
 20
6717404.76689527
  0
VERTEX
  8
contour_intermed
 10
287282.981562593
 20
6717405.22618546
  0
VERTEX
  8
contour_intermed
 10
287282.118377285
 20
6717405.69434852
  0
VERTEX
  8
contour_intermed
 10
287281.15532714
 20
6717406.45501889
  0
VERTEX
  8
contour_intermed
 10
287280.028493678
 20
6717407.30531888
  0
VERTEX
  8
contour_intermed
 10
287278.774220336
 20
6717408.10759855
  0
VERTEX
  8
contour_intermed
 10
287277.499735266
 20
6717408.72074783
  0
VERTEX
  8
contour_intermed
 10
287276.11365382
 20
6717409.11992475
  0
VERTEX
  8
contour_intermed
 10
287274.492348101
 20
6717409.28221689
  0
VERTEX
  8
contour_intermed
 10
287272.922536781
 20
6717409.50922357
  0
VERTEX
  8
contour_intermed
 10
287271.192271809
 20
6717410.15962553
  0
VERTEX
  8
contour_intermed
 10
287269.403867037
 20
6717411.05089441
  0
VERTEX
  8
contour_intermed
 10
287267.996446887
 20
6717411.90645618
  0
VERTEX
  8
contour_intermed
 10
287266.683243532
 20
6717413.14092152
  0
VERTEX
  8
contour_intermed
 10
287265.47700138
 20
6717414.67329718
  0
VERTEX
  8
contour_intermed
 10
287264.311432131
 20
6717416.38906391
  0
VERTEX
  8
contour_intermed
 10
287263.096310748
 20
6717418.18320253
  0
VERTEX
  8
contour_intermed
 10
287261.904977985
 20
6717419.68183401
  0
VERTEX
  8
contour_intermed
 10
287260.43850463
 20
6717421.16184909
  0
VERTEX
  8
contour_intermed
 10
287259.010420818
 20
6717422.16973963
  0
VERTEX
  8
contour_intermed
 10
287257.467418049
 20
6717423.20702159
  0
VERTEX
  8
contour_intermed
 10
287255.892335578
 20
6717424.49122072
  0
VERTEX
  8
contour_intermed
 10
287254.414032923
 20
6717425.76528361
  0
VERTEX
  8
contour_intermed
 10
287252.792006044
 20
6717427.00606059
  0
VERTEX
  8
contour_intermed
 10
287251.000562975
 20
6717427.90296293
  0
VERTEX
  8
contour_intermed
 10
287249.124435462
 20
6717428.61434703
  0
VERTEX
  8
contour_intermed
 10
287247.417076377
 20
6717429.24751202
  0
VERTEX
  8
contour_intermed
 10
287245.901865659
 20
6717430.01245507
  0
VERTEX
  8
contour_intermed
 10
287244.374033347
 20
6717430.80396041
  0
VERTEX
  8
contour_intermed
 10
287242.809824322
 20
6717431.53053546
  0
VERTEX
  8
contour_intermed
 10
287241.103323139
 20
6717432.0157643
  0
VERTEX
  8
contour_intermed
 10
287239.344544861
 20
6717432.47074142
  0
VERTEX
  8
contour_intermed
 10
287237.89880262
 20
6717433.01818217
  0
VERTEX
  8
contour_intermed
 10
287236.866672409
 20
6717433.45161303
  0
VERTEX
  8
contour_intermed
 10
287235.966280493
 20
6717433.83848952
  0
VERTEX
  8
contour_intermed
 10
287235.182914642
 20
6717434.24917953
  0
VERTEX
  8
contour_intermed
 10
287234.536732737
 20
6717434.66162904
  0
VERTEX
  8
contour_intermed
 10
287234.001881654
 20
6717435.34810029
  0
VERTEX
  8
contour_intermed
 10
287233.659507387
 20
6717436.11782101
  0
VERTEX
  8
contour_intermed
 10
287233.175096414
 20
6717437.01086694
  0
VERTEX
  8
contour_intermed
 10
287232.838569848
 20
6717437.85954868
  0
VERTEX
  8
contour_intermed
 10
287232.575760913
 20
6717438.40962121
  0
VERTEX
  8
contour_intermed
 10
287232.292491827
 20
6717439.03601249
  0
VERTEX
  8
contour_intermed
 10
287232.221275249
 20
6717439.79134974
  0
VERTEX
  8
contour_intermed
 10
287232.609206182
 20
6717440.4109061
  0
VERTEX
  8
contour_intermed
 10
287233.672349173
 20
6717440.6503511
  0
VERTEX
  8
contour_intermed
 10
287234.837472399
 20
6717440.7846812
  0
VERTEX
  8
contour_intermed
 10
287235.802561291
 20
6717440.97175736
  0
VERTEX
  8
contour_intermed
 10
287236.491177662
 20
6717441.44612328
  0
VERTEX
  8
contour_intermed
 10
287236.907319613
 20
6717442.10936161
  0
VERTEX
  8
contour_intermed
 10
287236.838418823
 20
6717443.53796758
  0
VERTEX
  8
contour_intermed
 10
287236.728833235
 20
6717445.39566764
  0
VERTEX
  8
contour_intermed
 10
287237.131726388
 20
6717446.81613119
  0
VERTEX
  8
contour_intermed
 10
287238.10916711
 20
6717447.6811523
  0
VERTEX
  8
contour_intermed
 10
287239.244905197
 20
6717448.17553389
  0
VERTEX
  8
contour_intermed
 10
287240.374875846
 20
6717448.49351125
  0
VERTEX
  8
contour_intermed
 10
287241.745234156
 20
6717448.58897455
  0
VERTEX
  8
contour_intermed
 10
287243.080168428
 20
6717448.86989163
  0
VERTEX
  8
contour_intermed
 10
287244.120662904
 20
6717449.80832236
  0
VERTEX
  8
contour_intermed
 10
287244.856409181
 20
6717451.2174941
  0
VERTEX
  8
contour_intermed
 10
287245.712631033
 20
6717452.36310283
  0
VERTEX
  8
contour_intermed
 10
287246.871578798
 20
6717452.99750714
  0
VERTEX
  8
contour_intermed
 10
287248.376272504
 20
6717453.13715056
  0
VERTEX
  8
contour_intermed
 10
287249.885377903
 20
6717453.09680389
  0
VERTEX
  8
contour_intermed
 10
287251.487481424
 20
6717452.94248961
  0
VERTEX
  8
contour_intermed
 10
287253.056340211
 20
6717452.953305
  0
VERTEX
  8
contour_intermed
 10
287254.540233048
 20
6717453.34242875
  0
VERTEX
  8
contour_intermed
 10
287255.824844793
 20
6717454.12458959
  0
VERTEX
  8
contour_intermed
 10
287256.801771757
 20
6717455.17434877
  0
VERTEX
  8
contour_intermed
 10
287257.624811134
 20
6717456.35518887
  0
VERTEX
  8
contour_intermed
 10
287258.217363969
 20
6717457.76263603
  0
VERTEX
  8
contour_intermed
 10
287259.144250122
 20
6717458.83574988
  0
VERTEX
  8
contour_intermed
 10
287260.435088436
 20
6717459.54491156
  0
VERTEX
  8
contour_intermed
 10
287262.162253841
 20
6717459.81774616
  0
VERTEX
  8
contour_intermed
 10
287264.046527188
 20
6717459.93347281
  0
VERTEX
  8
contour_intermed
 10
287265.932097588
 20
6717460.04790241
  0
VERTEX
  8
contour_intermed
 10
287267.978446722
 20
6717460.00155328
  0
VERTEX
  8
contour_intermed
 10
287269.919483951
 20
6717460.06051605
  0
VERTEX
  8
contour_intermed
 10
287271.738407467
 20
6717460.24585234
  0
VERTEX
  8
contour_intermed
 10
287273.633679605
 20
6717460.38286421
  0
VERTEX
  8
contour_intermed
 10
287275.498359607
 20
6717460.63915351
  0
VERTEX
  8
contour_intermed
 10
287277.143347099
 20
6717461.06350387
  0
VERTEX
  8
contour_intermed
 10
287278.62345685
 20
6717461.43179656
  0
VERTEX
  8
contour_intermed
 10
287279.929420637
 20
6717461.58703193
  0
VERTEX
  8
contour_intermed
 10
287281.175115582
 20
6717461.33624137
  0
VERTEX
  8
contour_intermed
 10
287282.125000082
 20
6717460.99634849
  0
VERTEX
  8
contour_intermed
 10
287282.788840869
 20
6717460.77018007
  0
VERTEX
  8
contour_intermed
 10
287283.436810796
 20
6717460.68415132
  0
VERTEX
  8
contour_intermed
 10
287283.933691992
 20
6717461.04332704
  0
VERTEX
  8
contour_intermed
 10
287284.457020753
 20
6717461.35161566
  0
VERTEX
  8
contour_intermed
 10
287285
 20
6717461.6
  0
SEQEND
  0
POLYLINE
 66
1
  8
contour
  0
VERTEX
  8
contour
 10
287032.894135664
 20
6717446.54793402
  0
VERTEX
  8
contour
 10
287032.065745762
 20
6717447.30821987
  0
VERTEX
  8
contour
 10
287031.748564437
 20
6717448.16502318
  0
VERTEX
  8
contour
 10
287031.605974145
 20
6717448.98461835
  0
VERTEX
  8
contour
 10
287032.44550767
 20
6717449.71270504
  0
VERTEX
  8
contour
 10
287033.477699594
 20
6717450.16106963
  0
VERTEX
  8
contour
 10
287035.035577204
 20
6717450.4926446
  0
VERTEX
  8
contour
 10
287036.949831688
 20
6717451.25349841
  0
VERTEX
  8
contour
 10
287039.193113429
 20
6717452.0795804
  0
VERTEX
  8
contour
 10
287041.354140557
 20
6717453.43788471
  0
VERTEX
  8
contour
 10
287042.75464137
 20
6717455.53013645
  0
VERTEX
  8
contour
 10
287043.400595335
 20
6717457.87194301
  0
VERTEX
  8
contour
 10
287043.032867882
 20
6717460.28852085
  0
VERTEX
  8
contour
 10
287042.48505732
 20
6717462.06280882
  0
VERTEX
  8
contour
 10
287042.554643573
 20
6717463.47354748
  0
VERTEX
  8
contour
 10
287043.354114329
 20
6717464.52767072
  0
VERTEX
  8
contour
 10
287044.923323027
 20
6717465.02566118
  0
VERTEX
  8
contour
 10
287046.716972428
 20
6717465.25907204
  0
VERTEX
  8
contour
 10
287048.666407005
 20
6717465.313593
  0
VERTEX
  8
contour
 10
287050.569659249
 20
6717465.41034075
  0
VERTEX
  8
contour
 10
287052.027524932
 20
6717465.95247507
  0
VERTEX
  8
contour
 10
287053.119322749
 20
6717466.86067725
  0
VERTEX
  8
contour
 10
287053.94099013
 20
6717468.03900987
  0
VERTEX
  8
contour
 10
287054.717170522
 20
6717469.26282948
  0
VERTEX
  8
contour
 10
287055.53531479
 20
6717470.44468521
  0
VERTEX
  8
contour
 10
287056.574940267
 20
6717471.40505973
  0
VERTEX
  8
contour
 10
287057.801637602
 20
6717472.1783624
  0
VERTEX
  8
contour
 10
287059.29557719
 20
6717472.68442281
  0
VERTEX
  8
contour
 10
287060.798923531
 20
6717473.18107647
  0
VERTEX
  8
contour
 10
287062.101067196
 20
6717473.8789328
  0
VERTEX
  8
contour
 10
287063.148097186
 20
6717474.83190281
  0
VERTEX
  8
contour
 10
287063.677085751
 20
6717476.30291425
  0
VERTEX
  8
contour
 10
287063.807214153
 20
6717478.17278585
  0
VERTEX
  8
contour
 10
287063.724778538
 20
6717480.25522146
  0
VERTEX
  8
contour
 10
287063.79745482
 20
6717482.18254518
  0
VERTEX
  8
contour
 10
287064.184802148
 20
6717483.79519785
  0
VERTEX
  8
contour
 10
287064.693742763
 20
6717485.28625724
  0
VERTEX
  8
contour
 10
287065.124861199
 20
6717486.8551388
  0
VERTEX
  8
contour
 10
287065.619001058
 20
6717488.36099894
  0
VERTEX
  8
contour
 10
287066.231164479
 20
6717489.74883552
  0
VERTEX
  8
contour
 10
287066.905424418
 20
6717491.05936198
  0
VERTEX
  8
contour
 10
287067.548273536
 20
6717492.32647828
  0
VERTEX
  8
contour
 10
287068.105457526
 20
6717493.51096154
  0
VERTEX
  8
contour
 10
287069.100452592
 20
6717494.8572825
  0
VERTEX
  8
contour
 10
287070.118637281
 20
6717496.33724686
  0
VERTEX
  8
contour
 10
287071.341854063
 20
6717498.03574735
  0
VERTEX
  8
contour
 10
287072.705987052
 20
6717499.80828328
  0
VERTEX
  8
contour
 10
287074.050519971
 20
6717501.32175096
  0
VERTEX
  8
contour
 10
287075.875962351
 20
6717502.56490543
  0
VERTEX
  8
contour
 10
287077.835497402
 20
6717502.7297536
  0
VERTEX
  8
contour
 10
287080.621202927
 20
6717502.58403388
  0
VERTEX
  8
contour
 10
287083.793899784
 20
6717501.53089965
  0
VERTEX
  8
contour
 10
287087.538821636
 20
6717499.3790747
  0
VERTEX
  8
contour
 10
287091.625119927
 20
6717496.89728302
  0
VERTEX
  8
contour
 10
287095.140653427
 20
6717493.7082638
  0
VERTEX
  8
contour
 10
287098.217698732
 20
6717490.94662373
  0
VERTEX
  8
contour
 10
287100.85971526
 20
6717487.86045441
  0
VERTEX
  8
contour
 10
287103.157959312
 20
6717484.66672722
  0
VERTEX
  8
contour
 10
287104.794862825
 20
6717481.20781012
  0
VERTEX
  8
contour
 10
287106.072094302
 20
6717477.68253958
  0
VERTEX
  8
contour
 10
287107.887670219
 20
6717475.14851018
  0
VERTEX
  8
contour
 10
287110.07244005
 20
6717473.31139889
  0
VERTEX
  8
contour
 10
287112.385909826
 20
6717471.82336773
  0
VERTEX
  8
contour
 10
287114.531742276
 20
6717470.29471842
  0
VERTEX
  8
contour
 10
287116.501033021
 20
6717468.87721103
  0
VERTEX
  8
contour
 10
287118.346969722
 20
6717467.27687586
  0
VERTEX
  8
contour
 10
287119.856399644
 20
6717466.63652988
  0
VERTEX
  8
contour
 10
287120.837828337
 20
6717467.60725612
  0
VERTEX
  8
contour
 10
287121.600139968
 20
6717469.87829268
  0
VERTEX
  8
contour
 10
287122.386974784
 20
6717473.02781194
  0
VERTEX
  8
contour
 10
287122.852440878
 20
6717476.3589394
  0
VERTEX
  8
contour
 10
287123.436552543
 20
6717478.98561935
  0
VERTEX
  8
contour
 10
287124.228941257
 20
6717479.79357874
  0
VERTEX
  8
contour
 10
287125.546954119
 20
6717478.20610893
  0
VERTEX
  8
contour
 10
287127.109680918
 20
6717476.54520671
  0
VERTEX
  8
contour
 10
287128.248853835
 20
6717474.97124916
  0
VERTEX
  8
contour
 10
287129.42160727
 20
6717474.01466973
  0
VERTEX
  8
contour
 10
287130.739070988
 20
6717473.87650122
  0
VERTEX
  8
contour
 10
287132.108363253
 20
6717474.28117849
  0
VERTEX
  8
contour
 10
287133.720385775
 20
6717474.71638836
  0
VERTEX
  8
contour
 10
287134.870935614
 20
6717473.78601025
  0
VERTEX
  8
contour
 10
287136.008335399
 20
6717472.34701935
  0
VERTEX
  8
contour
 10
287137.041429443
 20
6717470.66662149
  0
VERTEX
  8
contour
 10
287137.649997091
 20
6717469.12675997
  0
VERTEX
  8
contour
 10
287137.805558823
 20
6717467.24686868
  0
VERTEX
  8
contour
 10
287137.347672763
 20
6717465.61718764
  0
VERTEX
  8
contour
 10
287136.534609698
 20
6717464.27959764
  0
VERTEX
  8
contour
 10
287135.480085837
 20
6717463.51902755
  0
VERTEX
  8
contour
 10
287134.383276842
 20
6717463.06260405
  0
VERTEX
  8
contour
 10
287133.008031639
 20
6717462.84930937
  0
VERTEX
  8
contour
 10
287131.577864219
 20
6717462.88191096
  0
VERTEX
  8
contour
 10
287130.197775114
 20
6717462.59655644
  0
VERTEX
  8
contour
 10
287128.913755734
 20
6717462.17876708
  0
VERTEX
  8
contour
 10
287127.863473126
 20
6717461.57313863
  0
VERTEX
  8
contour
 10
287126.584958311
 20
6717461.19950727
  0
VERTEX
  8
contour
 10
287125.386793795
 20
6717460.93028558
  0
VERTEX
  8
contour
 10
287124.479806921
 20
6717460.31036017
  0
VERTEX
  8
contour
 10
287124.353374398
 20
6717459.07770848
  0
VERTEX
  8
contour
 10
287124.898594161
 20
6717457.12606618
  0
VERTEX
  8
contour
 10
287125.729371034
 20
6717454.88729654
  0
VERTEX
  8
contour
 10
287126.77106838
 20
6717452.9994385
  0
VERTEX
  8
contour
 10
287127.488328987
 20
6717451.19272761
  0
VERTEX
  8
contour
 10
287127.478467753
 20
6717449.6466142
  0
VERTEX
  8
contour
 10
287126.820186544
 20
6717448.43205719
  0
VERTEX
  8
contour
 10
287126.003221772
 20
6717447.23636096
  0
VERTEX
  8
contour
 10
287125.097627963
 20
6717446.00767916
  0
VERTEX
  8
contour
 10
287124.288136081
 20
6717444.39690788
  0
VERTEX
  8
contour
 10
287123.812167582
 20
6717442.7855479
  0
VERTEX
  8
contour
 10
287124.207064609
 20
6717441.01620949
  0
VERTEX
  8
contour
 10
287125.174265585
 20
6717439.19785586
  0
VERTEX
  8
contour
 10
287125.884667517
 20
6717438.00633947
  0
VERTEX
  8
contour
 10
287126.361725877
 20
6717437.31859278
  0
VERTEX
  8
contour
 10
287125.737453061
 20
6717436.94406796
  0
VERTEX
  8
contour
 10
287124.418726557
 20
6717436.68604887
  0
VERTEX
  8
contour
 10
287122.754025099
 20
6717436.19144054
  0
VERTEX
  8
contour
 10
287121.204314462
 20
6717435.76683106
  0
VERTEX
  8
contour
 10
287120.185403465
 20
6717435.21021072
  0
VERTEX
  8
contour
 10
287118.758068012
 20
6717435.16060475
  0
VERTEX
  8
contour
 10
287117.053034273
 20
6717435.740609
  0
VERTEX
  8
contour
 10
287114.947258053
 20
6717436.5748628
  0
VERTEX
  8
contour
 10
287112.905318846
 20
6717437.33943905
  0
VERTEX
  8
contour
 10
287111.026964244
 20
6717437.62199714
  0
VERTEX
  8
contour
 10
287109.367418898
 20
6717437.49913024
  0
VERTEX
  8
contour
 10
287108.059547055
 20
6717437.08748429
  0
VERTEX
  8
contour
 10
287106.812477125
 20
6717436.18890688
  0
VERTEX
  8
contour
 10
287105.907987182
 20
6717435.08153766
  0
VERTEX
  8
contour
 10
287104.808237511
 20
6717434.38843076
  0
VERTEX
  8
contour
 10
287103.581621701
 20
6717433.77057756
  0
VERTEX
  8
contour
 10
287102.264610379
 20
6717433.63096373
  0
VERTEX
  8
contour
 10
287100.78765478
 20
6717433.6632182
  0
VERTEX
  8
contour
 10
287099.312826494
 20
6717433.69197983
  0
VERTEX
  8
contour
 10
287097.840090621
 20
6717433.20404422
  0
VERTEX
  8
contour
 10
287096.789359582
 20
6717432.06285234
  0
VERTEX
  8
contour
 10
287096.139924212
 20
6717430.72877828
  0
VERTEX
  8
contour
 10
287095.636934352
 20
6717429.17373544
  0
VERTEX
  8
contour
 10
287094.967477637
 20
6717427.89408678
  0
VERTEX
  8
contour
 10
287094.080897473
 20
6717427.26488953
  0
VERTEX
  8
contour
 10
287092.645913415
 20
6717427.18057884
  0
VERTEX
  8
contour
 10
287090.991978828
 20
6717427.52655153
  0
VERTEX
  8
contour
 10
287089.095520457
 20
6717427.71588447
  0
VERTEX
  8
contour
 10
287087.560709949
 20
6717427.7056348
  0
VERTEX
  8
contour
 10
287086.215548535
 20
6717426.86748336
  0
VERTEX
  8
contour
 10
287085.183524193
 20
6717425.74229822
  0
VERTEX
  8
contour
 10
287084.437843541
 20
6717424.57167283
  0
VERTEX
  8
contour
 10
287083.579534575
 20
6717423.50808156
  0
VERTEX
  8
contour
 10
287082.809054745
 20
6717422.56494785
  0
VERTEX
  8
contour
 10
287081.739964199
 20
6717421.59234997
  0
VERTEX
  8
contour
 10
287080.597130296
 20
6717420.8353423
  0
VERTEX
  8
contour
 10
287079.19475622
 20
6717420.08463684
  0
VERTEX
  8
contour
 10
287077.534759269
 20
6717419.67279674
  0
VERTEX
  8
contour
 10
287075.980660183
 20
6717419.08119908
  0
VERTEX
  8
contour
 10
287074.51733442
 20
6717418.57602749
  0
VERTEX
  8
contour
 10
287072.947029136
 20
6717418.19614579
  0
VERTEX
  8
contour
 10
287071.103475439
 20
6717418.03849462
  0
VERTEX
  8
contour
 10
287069.03371683
 20
6717418.10420198
  0
VERTEX
  8
contour
 10
287067.004411944
 20
6717417.9541314
  0
VERTEX
  8
contour
 10
287065
 20
6717417.92309366
  0
VERTEX
  8
contour
 10
287063
 20
6717417.945274
  0
VERTEX
  8
contour
 10
287060.99657694
 20
6717417.92932029
  0
VERTEX
  8
contour
 10
287058.968408086
 20
6717418.14923021
  0
VERTEX
  8
contour
 10
287056.847947361
 20
6717418.4952583
  0
VERTEX
  8
contour
 10
287054.686860688
 20
6717419.29366396
  0
VERTEX
  8
contour
 10
287052.632953006
 20
6717420.17142884
  0
VERTEX
  8
contour
 10
287051.177970116
 20
6717420.91361965
  0
VERTEX
  8
contour
 10
287050.450167956
 20
6717421.94646786
  0
VERTEX
  8
contour
 10
287050.621459885
 20
6717423.09189892
  0
VERTEX
  8
contour
 10
287051.555779903
 20
6717424.22796414
  0
VERTEX
  8
contour
 10
287052.89793776
 20
6717425.03693521
  0
VERTEX
  8
contour
 10
287054.080935316
 20
6717425.89465274
  0
VERTEX
  8
contour
 10
287054.809258915
 20
6717427.17074108
  0
VERTEX
  8
contour
 10
287055.361456976
 20
6717428.62257463
  0
VERTEX
  8
contour
 10
287055.731085907
 20
6717430.29247487
  0
VERTEX
  8
contour
 10
287056.107798174
 20
6717432.09102899
  0
VERTEX
  8
contour
 10
287056.162003648
 20
6717434.29999929
  0
VERTEX
  8
contour
 10
287056.133903353
 20
6717436.10870206
  0
VERTEX
  8
contour
 10
287055.837656863
 20
6717437.40725738
  0
VERTEX
  8
contour
 10
287055.121670176
 20
6717438.33034399
  0
VERTEX
  8
contour
 10
287054.17410271
 20
6717438.9214284
  0
VERTEX
  8
contour
 10
287053.225264071
 20
6717439.30720394
  0
VERTEX
  8
contour
 10
287052.450498223
 20
6717440.04728328
  0
VERTEX
  8
contour
 10
287051.635620031
 20
6717441.65367781
  0
VERTEX
  8
contour
 10
287050.515746643
 20
6717443.88321189
  0
VERTEX
  8
contour
 10
287048.950309021
 20
6717446.02539565
  0
VERTEX
  8
contour
 10
287046.997269753
 20
6717447.73615522
  0
VERTEX
  8
contour
 10
287044.967327196
 20
6717449.1639832
  0
VERTEX
  8
contour
 10
287043.104303062
 20
6717449.67042602
  0
VERTEX
  8
contour
 10
287041.323464227
 20
6717449.50005356
  0
VERTEX
  8
contour
 10
287039.879847219
 20
6717448.80967335
  0
VERTEX
  8
contour
 10
287038.704393241
 20
6717448.04676041
  0
VERTEX
  8
contour
 10
287037.809839933
 20
6717447.32213661
  0
VERTEX
  8
contour
 10
287037.025160747
 20
6717446.81142479
  0
VERTEX
  8
contour
 10
287036.456993176
 20
6717446.49358371
  0
VERTEX
  8
contour
 10
287035.9814038
 20
6717446.08014438
  0
VERTEX
  8
contour
 10
287034.997297189
 20
6717446.01267923
  0
VERTEX
  8
contour
 10
287033.957340032
 20
6717446.09468113
  0
VERTEX
  8
contour
 10
287032.894135664
 20
6717446.54793402
  0
SEQEND
  0
POLYLINE
 66
1
  8
contour
  0
VERTEX
  8
contour
 10
287089.344827289
 20
6717506.38097597
  0
VERTEX
  8
contour
 10
287088.960353754
 20
6717506.74273735
  0
VERTEX
  8
contour
 10
287089.050669545
 20
6717507.08967306
  0
VERTEX
  8
contour
 10
287089.503278315
 20
6717507.24487192
  0
VERTEX
  8
contour
 10
287090.313075578
 20
6717507.8411076
  0
VERTEX
  8
contour
 10
287091.090531181
 20
6717508.92329589
  0
VERTEX
  8
contour
 10
287092.095618963
 20
6717510.20370747
  0
VERTEX
  8
contour
 10
287093.080677274
 20
6717511.26344151
  0
VERTEX
  8
contour
 10
287094.256617803
 20
6717511.66668016
  0
VERTEX
  8
contour
 10
287095.569469973
 20
6717511.06886664
  0
VERTEX
  8
contour
 10
287096.713318764
 20
6717509.55160658
  0
VERTEX
  8
contour
 10
287097.052720136
 20
6717507.7537274
  0
VERTEX
  8
contour
 10
287096.532584235
 20
6717506.34589099
  0
VERTEX
  8
contour
 10
287095.763539224
 20
6717505.42582551
  0
VERTEX
  8
contour
 10
287094.928504127
 20
6717504.908568
  0
VERTEX
  8
contour
 10
287094.071062229
 20
6717504.92604812
  0
VERTEX
  8
contour
 10
287093.00963819
 20
6717505.40141946
  0
VERTEX
  8
contour
 10
287091.923911207
 20
6717505.84284985
  0
VERTEX
  8
contour
 10
287091.00912816
 20
6717506
  0
VERTEX
  8
contour
 10
287090.081820149
 20
6717506.1269236
  0
VERTEX
  8
contour
 10
287089.344827289
 20
6717506.38097597
  0
SEQEND
  0
POLYLINE
 66
1
  8
contour
  0
VERTEX
  8
contour
 10
287139.413112088
 20
6717438.15809565
  0
VERTEX
  8
contour
 10
287138.948125395
 20
6717438.97292696
  0
VERTEX
  8
contour
 10
287138.743942889
 20
6717439.76891322
  0
VERTEX
  8
contour
 10
287138.540267497
 20
6717440.88256108
  0
VERTEX
  8
contour
 10
287139.31208905
 20
6717441.39882601
  0
VERTEX
  8
contour
 10
287140.462133384
 20
6717441.32108186
  0
VERTEX
  8
contour
 10
287141.925746967
 20
6717440.38495709
  0
VERTEX
  8
contour
 10
287143.260041406
 20
6717439.02854281
  0
VERTEX
  8
contour
 10
287143.821630456
 20
6717437.56453015
  0
VERTEX
  8
contour
 10
287143.699591117
 20
6717436.43012179
  0
VERTEX
  8
contour
 10
287142.908909358
 20
6717435.95916225
  0
VERTEX
  8
contour
 10
287141.90356511
 20
6717436.1568069
  0
VERTEX
  8
contour
 10
287140.972408563
 20
6717436.69995418
  0
VERTEX
  8
contour
 10
287140.115615223
 20
6717437.34410261
  0
VERTEX
  8
contour
 10
287139.413112088
 20
6717438.15809565
  0
SEQEND
  0
POLYLINE
 66
1
  8
contour
  0
VERTEX
  8
contour
 10
287285
 20
6717417.26
  0
VERTEX
  8
contour
 10
287284.034518997
 20
6717417.78807504
  0
VERTEX
  8
contour
 10
287282.993750385
 20
6717418.33269277
  0
VERTEX
  8
contour
 10
287282.110821769
 20
6717418.77751381
  0
VERTEX
  8
contour
 10
287281.07473688
 20
6717419.268889
  0
VERTEX
  8
contour
 10
287279.987875872
 20
6717419.77482672
  0
VERTEX
  8
contour
 10
287278.603160676
 20
6717420.47831784
  0
VERTEX
  8
contour
 10
287276.886408898
 20
6717421.39330073
  0
VERTEX
  8
contour
 10
287274.95271283
 20
6717422.77065372
  0
VERTEX
  8
contour
 10
287273.301883836
 20
6717424.37906011
  0
VERTEX
  8
contour
 10
287272.338113635
 20
6717426.14467942
  0
VERTEX
  8
contour
 10
287271.740835235
 20
6717428.27667578
  0
VERTEX
  8
contour
 10
287271.586143021
 20
6717430.19347497
  0
VERTEX
  8
contour
 10
287271.351564955
 20
6717432.26588402
  0
VERTEX
  8
contour
 10
287271.18954183
 20
6717433.98294899
  0
VERTEX
  8
contour
 10
287270.860401078
 20
6717435.7674164
  0
VERTEX
  8
contour
 10
287270.91208202
 20
6717437.3706522
  0
VERTEX
  8
contour
 10
287271.512816601
 20
6717438.63374454
  0
VERTEX
  8
contour
 10
287272.095201583
 20
6717440.04323074
  0
VERTEX
  8
contour
 10
287272.494357425
 20
6717441.16729521
  0
VERTEX
  8
contour
 10
287272.223043043
 20
6717442.3716956
  0
VERTEX
  8
contour
 10
287271.391121622
 20
6717443.25439194
  0
VERTEX
  8
contour
 10
287269.987781854
 20
6717444.05990173
  0
VERTEX
  8
contour
 10
287268.748889681
 20
6717444.39433032
  0
VERTEX
  8
contour
 10
287267.849592482
 20
6717444.3803618
  0
VERTEX
  8
contour
 10
287267.173719377
 20
6717444.36554359
  0
VERTEX
  8
contour
 10
287266.670547979
 20
6717444.58229038
  0
VERTEX
  8
contour
 10
287266.558948513
 20
6717444.87689609
  0
VERTEX
  8
contour
 10
287266.583249931
 20
6717445.49977578
  0
VERTEX
  8
contour
 10
287267.026922776
 20
6717446.02518741
  0
VERTEX
  8
contour
 10
287267.794274402
 20
6717446.56933713
  0
VERTEX
  8
contour
 10
287268.94277893
 20
6717447.08592465
  0
VERTEX
  8
contour
 10
287270.189126216
 20
6717447.69445906
  0
VERTEX
  8
contour
 10
287271.652888111
 20
6717448.38955264
  0
VERTEX
  8
contour
 10
287273.388724511
 20
6717448.73767616
  0
VERTEX
  8
contour
 10
287274.925176793
 20
6717449.10093277
  0
VERTEX
  8
contour
 10
287276.510750189
 20
6717449.21068614
  0
VERTEX
  8
contour
 10
287277.923264122
 20
6717449.19436841
  0
VERTEX
  8
contour
 10
287279.129840726
 20
6717448.97743195
  0
VERTEX
  8
contour
 10
287279.987153592
 20
6717449.00218891
  0
VERTEX
  8
contour
 10
287280.635409177
 20
6717449.17862312
  0
VERTEX
  8
contour
 10
287281.299576071
 20
6717449.44964727
  0
VERTEX
  8
contour
 10
287282.072769046
 20
6717449.70542994
  0
VERTEX
  8
contour
 10
287283.01950107
 20
6717449.91191811
  0
VERTEX
  8
contour
 10
287283.983548194
 20
6717450.08466051
  0
VERTEX
  8
contour
 10
287285
 20
6717450.22
  0
SEQEND
  0
POLYLINE
 66
1
  8
contour_intermed
  0
VERTEX
  8
contour_intermed
 10
287053.416071029
 20
6717450.02233601
  0
VERTEX
  8
contour_intermed
 10
287052.911437965
 20
6717450.79610256
  0
VERTEX
  8
contour_intermed
 10
287052.830839779
 20
6717451.54730287
  0
VERTEX
  8
contour_intermed
 10
287052.934815972
 20
6717452.17828135
  0
VERTEX
  8
contour_intermed
 10
287053.798206128
 20
6717452.6355484
  0
VERTEX
  8
contour_intermed
 10
287054.915826388
 20
6717453.15132001
  0
VERTEX
  8
contour_intermed
 10
287056.137555295
 20
6717453.71347932
  0
VERTEX
  8
contour_intermed
 10
287057.451931529
 20
6717454.48399766
  0
VERTEX
  8
contour_intermed
 10
287058.636702079
 20
6717455.33713641
  0
VERTEX
  8
contour_intermed
 10
287059.846629582
 20
6717456.13337042
  0
VERTEX
  8
contour_intermed
 10
287061.061021584
 20
6717456.92270575
  0
VERTEX
  8
contour_intermed
 10
287062.466877072
 20
6717457.5427882
  0
VERTEX
  8
contour_intermed
 10
287064.080946113
 20
6717458.0149695
  0
VERTEX
  8
contour_intermed
 10
287065.676550414
 20
6717458.40161763
  0
VERTEX
  8
contour_intermed
 10
287067.047597761
 20
6717458.82810609
  0
VERTEX
  8
contour_intermed
 10
287068.171042239
 20
6717459.39546631
  0
VERTEX
  8
contour_intermed
 10
287069.095576415
 20
6717460.1079095
  0
VERTEX
  8
contour_intermed
 10
287069.678413444
 20
6717461.02699713
  0
VERTEX
  8
contour_intermed
 10
287070.663303001
 20
6717461.47863022
  0
VERTEX
  8
contour_intermed
 10
287071.979226093
 20
6717461.17697851
  0
VERTEX
  8
contour_intermed
 10
287073.445632094
 20
6717460.33489509
  0
VERTEX
  8
contour_intermed
 10
287074.875441923
 20
6717459.11547432
  0
VERTEX
  8
contour_intermed
 10
287076.125283995
 20
6717457.91493051
  0
VERTEX
  8
contour_intermed
 10
287077.912687778
 20
6717456.72220777
  0
VERTEX
  8
contour_intermed
 10
287079.954972209
 20
6717455.72503633
  0
VERTEX
  8
contour_intermed
 10
287082.376418887
 20
6717454.63197189
  0
VERTEX
  8
contour_intermed
 10
287084.722623835
 20
6717453.03169684
  0
VERTEX
  8
contour_intermed
 10
287086.518269104
 20
6717451.09196366
  0
VERTEX
  8
contour_intermed
 10
287087.765655902
 20
6717448.92806475
  0
VERTEX
  8
contour_intermed
 10
287088.272925817
 20
6717446.77941151
  0
VERTEX
  8
contour_intermed
 10
287088.053864011
 20
6717444.8751201
  0
VERTEX
  8
contour_intermed
 10
287087.49103259
 20
6717443.27141431
  0
VERTEX
  8
contour_intermed
 10
287086.581271395
 20
6717442.12665536
  0
VERTEX
  8
contour_intermed
 10
287085.413470353
 20
6717441.38792688
  0
VERTEX
  8
contour_intermed
 10
287084.199510577
 20
6717440.71576807
  0
VERTEX
  8
contour_intermed
 10
287083.077529452
 20
6717439.99686034
  0
VERTEX
  8
contour_intermed
 10
287082.254795564
 20
6717438.88104757
  0
VERTEX
  8
contour_intermed
 10
287081.432823807
 20
6717437.44285179
  0
VERTEX
  8
contour_intermed
 10
287080.77934367
 20
6717436.07115341
  0
VERTEX
  8
contour_intermed
 10
287080.168449136
 20
6717434.72673799
  0
VERTEX
  8
contour_intermed
 10
287079.562986054
 20
6717433.33448239
  0
VERTEX
  8
contour_intermed
 10
287079.052696337
 20
6717431.82852981
  0
VERTEX
  8
contour_intermed
 10
287078.41525987
 20
6717430.63002378
  0
VERTEX
  8
contour_intermed
 10
287077.666652068
 20
6717429.75219158
  0
VERTEX
  8
contour_intermed
 10
287076.527992031
 20
6717429.13414464
  0
VERTEX
  8
contour_intermed
 10
287075.189028382
 20
6717428.88498112
  0
VERTEX
  8
contour_intermed
 10
287074.134509222
 20
6717428.56538442
  0
VERTEX
  8
contour_intermed
 10
287073.358335432
 20
6717427.97700256
  0
VERTEX
  8
contour_intermed
 10
287073.144570713
 20
6717426.65685582
  0
VERTEX
  8
contour_intermed
 10
287073.073563987
 20
6717425.14289741
  0
VERTEX
  8
contour_intermed
 10
287072.73127353
 20
6717423.80502568
  0
VERTEX
  8
contour_intermed
 10
287071.8944236
 20
6717423.03628291
  0
VERTEX
  8
contour_intermed
 10
287070.664106578
 20
6717423.02347242
  0
VERTEX
  8
contour_intermed
 10
287069.581244851
 20
6717423.80004765
  0
VERTEX
  8
contour_intermed
 10
287068.695977366
 20
6717425.59642272
  0
VERTEX
  8
contour_intermed
 10
287068.015030625
 20
6717427.71258744
  0
VERTEX
  8
contour_intermed
 10
287067.523933449
 20
6717429.62173442
  0
VERTEX
  8
contour_intermed
 10
287066.790041289
 20
6717431.18285294
  0
VERTEX
  8
contour_intermed
 10
287065.613078313
 20
6717432.7504874
  0
VERTEX
  8
contour_intermed
 10
287064.787636494
 20
6717434.07051412
  0
VERTEX
  8
contour_intermed
 10
287064.504251107
 20
6717435.44902961
  0
VERTEX
  8
contour_intermed
 10
287065.023389909
 20
6717436.91342273
  0
VERTEX
  8
contour_intermed
 10
287065.826572426
 20
6717438.28146867
  0
VERTEX
  8
contour_intermed
 10
287066.492751446
 20
6717439.66550121
  0
VERTEX
  8
contour_intermed
 10
287066.856742194
 20
6717440.91424588
  0
VERTEX
  8
contour_intermed
 10
287066.275821826
 20
6717442.48088463
  0
VERTEX
  8
contour_intermed
 10
287064.967314725
 20
6717443.90831775
  0
VERTEX
  8
contour_intermed
 10
287063.127883574
 20
6717445.16828868
  0
VERTEX
  8
contour_intermed
 10
287061.127079737
 20
6717446.23265282
  0
VERTEX
  8
contour_intermed
 10
287059.333690862
 20
6717446.78173902
  0
VERTEX
  8
contour_intermed
 10
287057.940741117
 20
6717447.27029927
  0
VERTEX
  8
contour_intermed
 10
287056.82576583
 20
6717447.78871252
  0
VERTEX
  8
contour_intermed
 10
287055.794430591
 20
6717448.36361444
  0
VERTEX
  8
contour_intermed
 10
287054.97614281
 20
6717448.88345258
  0
VERTEX
  8
contour_intermed
 10
287054.161884447
 20
6717449.37439552
  0
VERTEX
  8
contour_intermed
 10
287053.416071029
 20
6717450.02233601
  0
SEQEND
  0
POLYLINE
 66
1
  8
contour_intermed
  0
VERTEX
  8
contour_intermed
 10
287073.021457343
 20
6717478.87364322
  0
VERTEX
  8
contour_intermed
 10
287072.77617427
 20
6717479.20152826
  0
VERTEX
  8
contour_intermed
 10
287072.617408102
 20
6717479.87299747
  0
VERTEX
  8
contour_intermed
 10
287072.260800372
 20
6717480.82501371
  0
VERTEX
  8
contour_intermed
 10
287072.248036995
 20
6717482.14447621
  0
VERTEX
  8
contour_intermed
 10
287072.483444221
 20
6717483.56654136
  0
VERTEX
  8
contour_intermed
 10
287073.163113561
 20
6717484.69488717
  0
VERTEX
  8
contour_intermed
 10
287074.442175356
 20
6717485.54565217
  0
VERTEX
  8
contour_intermed
 10
287076.312349588
 20
6717485.90191844
  0
VERTEX
  8
contour_intermed
 10
287078.541333947
 20
6717485.91683168
  0
VERTEX
  8
contour_intermed
 10
287080.568193614
 20
6717485.71282128
  0
VERTEX
  8
contour_intermed
 10
287082.220695147
 20
6717485.35569247
  0
VERTEX
  8
contour_intermed
 10
287083.211338931
 20
6717484.52275845
  0
VERTEX
  8
contour_intermed
 10
287083.558383178
 20
6717483.36938937
  0
VERTEX
  8
contour_intermed
 10
287083.032720002
 20
6717482.16767146
  0
VERTEX
  8
contour_intermed
 10
287081.885512104
 20
6717481.13664461
  0
VERTEX
  8
contour_intermed
 10
287080.468138786
 20
6717480.5872577
  0
VERTEX
  8
contour_intermed
 10
287078.915784087
 20
6717480.28783234
  0
VERTEX
  8
contour_intermed
 10
287077.286574542
 20
6717480.34582755
  0
VERTEX
  8
contour_intermed
 10
287075.794133681
 20
6717480.31120509
  0
VERTEX
  8
contour_intermed
 10
287074.722973547
 20
6717480.13598102
  0
VERTEX
  8
contour_intermed
 10
287074.006001098
 20
6717479.7646267
  0
VERTEX
  8
contour_intermed
 10
287073.645406378
 20
6717479.33165255
  0
VERTEX
  8
contour_intermed
 10
287073.306485958
 20
6717478.93818051
  0
VERTEX
  8
contour_intermed
 10
287073.021457343
 20
6717478.87364322
  0
SEQEND
  0
POLYLINE
 66
1
  8
contour_intermed
  0
VERTEX
  8
contour_intermed
 10
287099.10037698
 20
6717454.44016114
  0
VERTEX
  8
contour_intermed
 10
287098.47786857
 20
6717455.14971311
  0
VERTEX
  8
contour_intermed
 10
287098.39964782
 20
6717455.88623453
  0
VERTEX
  8
contour_intermed
 10
287098.585158118
 20
6717456.43948468
  0
VERTEX
  8
contour_intermed
 10
287099.619587683
 20
6717456.87273137
  0
VERTEX
  8
contour_intermed
 10
287100.956796334
 20
6717457.14784681
  0
VERTEX
  8
contour_intermed
 10
287102.286334665
 20
6717457.5671584
  0
VERTEX
  8
contour_intermed
 10
287103.797817936
 20
6717458.1928054
  0
VERTEX
  8
contour_intermed
 10
287105.591172617
 20
6717458.6453976
  0
VERTEX
  8
contour_intermed
 10
287107.554601625
 20
6717458.88610124
  0
VERTEX
  8
contour_intermed
 10
287109.561843045
 20
6717458.56281107
  0
VERTEX
  8
contour_intermed
 10
287111.478735974
 20
6717457.8253103
  0
VERTEX
  8
contour_intermed
 10
287112.752151688
 20
6717456.65244505
  0
VERTEX
  8
contour_intermed
 10
287114.060908475
 20
6717454.97955053
  0
VERTEX
  8
contour_intermed
 10
287115.018258404
 20
6717453.12464228
  0
VERTEX
  8
contour_intermed
 10
287116.217632315
 20
6717451.0168659
  0
VERTEX
  8
contour_intermed
 10
287117.721876226
 20
6717448.89081261
  0
VERTEX
  8
contour_intermed
 10
287118.619237169
 20
6717446.74585861
  0
VERTEX
  8
contour_intermed
 10
287118.943101742
 20
6717444.71125179
  0
VERTEX
  8
contour_intermed
 10
287118.181500711
 20
6717443.00701386
  0
VERTEX
  8
contour_intermed
 10
287116.875371548
 20
6717441.99017107
  0
VERTEX
  8
contour_intermed
 10
287115.130877447
 20
6717441.66996433
  0
VERTEX
  8
contour_intermed
 10
287112.988682189
 20
6717442.16403429
  0
VERTEX
  8
contour_intermed
 10
287110.863741233
 20
6717443.3443664
  0
VERTEX
  8
contour_intermed
 10
287108.954536487
 20
6717444.78700861
  0
VERTEX
  8
contour_intermed
 10
287107.263731281
 20
6717446.40538908
  0
VERTEX
  8
contour_intermed
 10
287105.8940259
 20
6717447.99618629
  0
VERTEX
  8
contour_intermed
 10
287104.794293316
 20
6717449.63281327
  0
VERTEX
  8
contour_intermed
 10
287103.882034819
 20
6717451.0531092
  0
VERTEX
  8
contour_intermed
 10
287102.999801806
 20
6717452.05893083
  0
VERTEX
  8
contour_intermed
 10
287101.98879105
 20
6717452.81255299
  0
VERTEX
  8
contour_intermed
 10
287101.011721137
 20
6717453.38909812
  0
VERTEX
  8
contour_intermed
 10
287100.024234923
 20
6717453.88836743
  0
VERTEX
  8
contour_intermed
 10
287099.10037698
 20
6717454.44016114
  0
SEQEND
  0
POLYLINE
 66
1
  8
contour_index
  0
VERTEX
  8
contour_index
 10
287071.153817005
 20
6717447.97368515
  0
VERTEX
  8
contour_index
 10
287070.539937474
 20
6717448.973316
  0
VERTEX
  8
contour_index
 10
287070.206638317
 20
6717449.98687246
  0
VERTEX
  8
contour_index
 10
287069.741500418
 20
6717451.18486539
  0
VERTEX
  8
contour_index
 10
287069.951058608
 20
6717452.38976786
  0
VERTEX
  8
contour_index
 10
287070.589590287
 20
6717453.52308963
  0
VERTEX
  8
contour_index
 10
287071.849211475
 20
6717454.29416619
  0
VERTEX
  8
contour_index
 10
287073.685573514
 20
6717454.49786162
  0
VERTEX
  8
contour_index
 10
287076.098046484
 20
6717453.88036352
  0
VERTEX
  8
contour_index
 10
287078.39847437
 20
6717452.65654
  0
VERTEX
  8
contour_index
 10
287080.295799133
 20
6717450.97896859
  0
VERTEX
  8
contour_index
 10
287081.487016348
 20
6717449.11528183
  0
VERTEX
  8
contour_index
 10
287081.744342895
 20
6717447.3437229
  0
VERTEX
  8
contour_index
 10
287081.297878315
 20
6717445.93083865
  0
VERTEX
  8
contour_index
 10
287080.2981786
 20
6717444.67335088
  0
VERTEX
  8
contour_index
 10
287079.062232753
 20
6717443.64326764
  0
VERTEX
  8
contour_index
 10
287077.836163504
 20
6717442.79283194
  0
VERTEX
  8
contour_index
 10
287076.597674668
 20
6717442.29615824
  0
VERTEX
  8
contour_index
 10
287075.480974508
 20
6717442.36220763
  0
VERTEX
  8
contour_index
 10
287074.543906143
 20
6717442.90392661
  0
VERTEX
  8
contour_index
 10
287073.880248102
 20
6717443.88679097
  0
VERTEX
  8
contour_index
 10
287073.438166806
 20
6717444.94700328
  0
VERTEX
  8
contour_index
 10
287072.811537979
 20
6717445.96658583
  0
VERTEX
  8
contour_index
 10
287071.976363507
 20
6717446.96704052
  0
VERTEX
  8
contour_index
 10
287071.153817005
 20
6717447.97368515
  0
SEQEND
  0
ENDSEC
  0
EOF
