  0
SECTION
  2
HEADER
  9
$EXTMIN
 10
286965
 20
6717215
  9
$EXTMAX
 10
287285
 20
6717535
  0
ENDSEC
  0
SECTION
  2
ENTITIES
  0
POLYLINE
 66
1
  8
cont
  0
VERTEX
  8
cont
 10
286969
 20
6717292
  0
VERTEX
  8
cont
 10
286968
 20
6717293
  0
VERTEX
  8
cont
 10
286967
 20
6717293.12
  0
SEQEND
  0
POLYLINE
 66
1
  8
cont
  0
VERTEX
  8
cont
 10
286969
 20
6717292
  0
VERTEX
  8
cont
 10
286970
 20
6717292
  0
VERTEX
  8
cont
 10
286971
 20
6717291.3
  0
VERTEX
  8
cont
 10
286971.52
 20
6717291
  0
VERTEX
  8
cont
 10
286973
 20
6717289.52
  0
VERTEX
  8
cont
 10
286975
 20
6717289.3
  0
VERTEX
  8
cont
 10
286975.82
 20
6717288.16
  0
VERTEX
  8
cont
 10
286974
 20
6717288
  0
VERTEX
  8
cont
 10
286974
 20
6717286
  0
VERTEX
  8
cont
 10
286975
 20
6717284
  0
VERTEX
  8
cont
 10
286976
 20
6717282
  0
VERTEX
  8
cont
 10
286977
 20
6717280
  0
VERTEX
  8
cont
 10
286978
 20
6717281
  0
VERTEX
  8
cont
 10
286979
 20
6717282
  0
VERTEX
  8
cont
 10
286981
 20
6717280
  0
VERTEX
  8
cont
 10
286982
 20
6717281
  0
VERTEX
  8
cont
 10
286983
 20
6717282
  0
VERTEX
  8
cont
 10
286985
 20
6717280
  0
VERTEX
  8
cont
 10
286986
 20
6717278
  0
VERTEX
  8
cont
 10
286986
 20
6717276
  0
VERTEX
  8
cont
 10
286986
 20
6717274
  0
VERTEX
  8
cont
 10
286985.98
 20
6717272
  0
VERTEX
  8
cont
 10
286985.84
 20
6717270.14
  0
VERTEX
  8
cont
 10
286983.82
 20
6717270.16
  0
VERTEX
  8
cont
 10
286983.62
 20
6717268.36
  0
VERTEX
  8
cont
 10
286982
 20
6717268
  0
VERTEX
  8
cont
 10
286981.86
 20
6717266.12
  0
VERTEX
  8
cont
 10
286981.52
 20
6717264.46
  0
VERTEX
  8
cont
 10
286980
 20
6717264
  0
VERTEX
  8
cont
 10
286981
 20
6717262
  0
VERTEX
  8
cont
 10
286981.72
 20
6717260.26
  0
VERTEX
  8
cont
 10
286981.62
 20
6717258.36
  0
VERTEX
  8
cont
 10
286981.52
 20
6717256.46
  0
VERTEX
  8
cont
 10
286981.48
 20
6717254.5
  0
VERTEX
  8
cont
 10
286981.54
 20
6717252.44
  0
VERTEX
  8
cont
 10
286981.66
 20
6717250.32
  0
VERTEX
  8
cont
 10
286981.4
 20
6717248.58
  0
VERTEX
  8
cont
 10
286981.36
 20
6717246.62
  0
VERTEX
  8
cont
 10
286981.54
 20
6717244.44
  0
VERTEX
  8
cont
 10
286980.3
 20
6717243.68
  0
VERTEX
  8
cont
 10
286980.08
 20
6717241.9
  0
VERTEX
  8
cont
 10
286979.78
 20
6717240.2
  0
VERTEX
  8
cont
 10
286979.5
 20
6717238.48
  0
VERTEX
  8
cont
 10
286979.3
 20
6717236.68
  0
VERTEX
  8
cont
 10
286978.5
 20
6717235.48
  0
VERTEX
  8
cont
 10
286977.88
 20
6717234.1
  0
VERTEX
  8
cont
 10
286977.32
 20
6717232.66
  0
VERTEX
  8
cont
 10
286977.16
 20
6717230.82
  0
VERTEX
  8
cont
 10
286976.26
 20
6717229.72
  0
VERTEX
  8
cont
 10
286976.04
 20
6717227.94
  0
VERTEX
  8
cont
 10
286976.58
 20
6717225.4
  0
VERTEX
  8
cont
 10
286976.5
 20
6717225
  0
VERTEX
  8
cont
 10
286977
 20
6717223.96
  0
VERTEX
  8
cont
 10
286977.34
 20
6717223
  0
VERTEX
  8
cont
 10
286977.48
 20
6717222.5
  0
VERTEX
  8
cont
 10
286977.8
 20
6717221
  0
VERTEX
  8
cont
 10
286979
 20
6717219.72
  0
VERTEX
  8
cont
 10
286980.28
 20
6717219
  0
SEQEND
  0
POLYLINE
 66
1
  8
cont
  0
VERTEX
  8
cont
 10
286975
 20
6717268
  0
VERTEX
  8
cont
 10
286974
 20
6717269
  0
VERTEX
  8
cont
 10
286974
 20
6717270
  0
VERTEX
  8
cont
 10
286975
 20
6717270
  0
VERTEX
  8
cont
 10
286976
 20
6717269
  0
VERTEX
  8
cont
 10
286976
 20
6717268
  0
VERTEX
  8
cont
 10
286975
 20
6717268
  0
SEQEND
  0
POLYLINE
 66
1
  8
cont
  0
VERTEX
  8
cont
 10
286967
 20
6717322.22
  0
VERTEX
  8
cont
 10
286968.18
 20
6717321.8
  0
VERTEX
  8
cont
 10
286968.22
 20
6717323
  0
VERTEX
  8
cont
 10
286968.1
 20
6717323.88
  0
VERTEX
  8
cont
 10
286969
 20
6717324
  0
VERTEX
  8
cont
 10
286971
 20
6717324
  0
VERTEX
  8
cont
 10
286972
 20
6717325
  0
VERTEX
  8
cont
 10
286973
 20
6717325.9
  0
VERTEX
  8
cont
 10
286975
 20
6717325.94
  0
VERTEX
  8
cont
 10
286977
 20
6717326
  0
VERTEX
  8
cont
 10
286978
 20
6717327
  0
VERTEX
  8
cont
 10
286979
 20
6717328
  0
VERTEX
  8
cont
 10
286981
 20
6717326.26
  0
VERTEX
  8
cont
 10
286982
 20
6717327
  0
VERTEX
  8
cont
 10
286983
 20
6717328
  0
VERTEX
  8
cont
 10
286984
 20
6717329
  0
VERTEX
  8
cont
 10
286985
 20
6717329.86
  0
VERTEX
  8
cont
 10
286986.12
 20
6717331
  0
VERTEX
  8
cont
 10
286987
 20
6717331.86
  0
VERTEX
  8
cont
 10
286989
 20
6717331.8
  0
VERTEX
  8
cont
 10
286991
 20
6717331.86
  0
VERTEX
  8
cont
 10
286993
 20
6717331.72
  0
VERTEX
  8
cont
 10
286995
 20
6717331.76
  0
VERTEX
  8
cont
 10
286997
 20
6717330.48
  0
VERTEX
  8
cont
 10
286998
 20
6717331
  0
VERTEX
  8
cont
 10
286999
 20
6717331.6
  0
VERTEX
  8
cont
 10
287001
 20
6717332.42
  0
VERTEX
  8
cont
 10
287001.48
 20
6717333
  0
VERTEX
  8
cont
 10
287003
 20
6717334.26
  0
VERTEX
  8
cont
 10
287003.82
 20
6717335
  0
VERTEX
  8
cont
 10
287005
 20
6717336.56
  0
VERTEX
  8
cont
 10
287005.32
 20
6717337
  0
VERTEX
  8
cont
 10
287006.1
 20
6717339
  0
VERTEX
  8
cont
 10
287007
 20
6717340.32
  0
VERTEX
  8
cont
 10
287007.68
 20
6717341
  0
VERTEX
  8
cont
 10
287008.5
 20
6717343
  0
VERTEX
  8
cont
 10
287009
 20
6717343.64
  0
VERTEX
  8
cont
 10
287011
 20
6717344.36
  0
VERTEX
  8
cont
 10
287013
 20
6717343.44
  0
VERTEX
  8
cont
 10
287015
 20
6717343.52
  0
VERTEX
  8
cont
 10
287017
 20
6717343.24
  0
VERTEX
  8
cont
 10
287019
 20
6717341.38
  0
VERTEX
  8
cont
 10
287021
 20
6717341.26
  0
VERTEX
  8
cont
 10
287023
 20
6717339.98
  0
VERTEX
  8
cont
 10
287024.24
 20
6717341
  0
VERTEX
  8
cont
 10
287025
 20
6717342.28
  0
VERTEX
  8
cont
 10
287027
 20
6717341.54
  0
VERTEX
  8
cont
 10
287029
 20
6717341.44
  0
VERTEX
  8
cont
 10
287031
 20
6717340.28
  0
VERTEX
  8
cont
 10
287031.92
 20
6717338.06
  0
VERTEX
  8
cont
 10
287030.14
 20
6717337.84
  0
VERTEX
  8
cont
 10
287031
 20
6717335.64
  0
VERTEX
  8
cont
 10
287031.22
 20
6717334.76
  0
VERTEX
  8
cont
 10
287029.38
 20
6717334.6
  0
VERTEX
  8
cont
 10
287028.16
 20
6717333.82
  0
VERTEX
  8
cont
 10
287026.54
 20
6717333.44
  0
VERTEX
  8
cont
 10
287026.18
 20
6717331.8
  0
VERTEX
  8
cont
 10
287024.56
 20
6717331.42
  0
VERTEX
  8
cont
 10
287023.58
 20
6717330.4
  0
VERTEX
  8
cont
 10
287022.46
 20
6717329.52
  0
VERTEX
  8
cont
 10
287022.66
 20
6717327.32
  0
VERTEX
  8
cont
 10
287022.6
 20
6717325.38
  0
VERTEX
  8
cont
 10
287022.48
 20
6717323.5
  0
VERTEX
  8
cont
 10
287023
 20
6717322.08
  0
VERTEX
  8
cont
 10
287023.7
 20
6717320.28
  0
VERTEX
  8
cont
 10
287024.34
 20
6717317.64
  0
VERTEX
  8
cont
 10
287025
 20
6717316.06
  0
VERTEX
  8
cont
 10
287026.02
 20
6717313.96
  0
VERTEX
  8
cont
 10
287026.22
 20
6717311.76
  0
VERTEX
  8
cont
 10
287027
 20
6717310.04
  0
VERTEX
  8
cont
 10
287029
 20
6717307.9
  0
VERTEX
  8
cont
 10
287031
 20
6717305.86
  0
VERTEX
  8
cont
 10
287033
 20
6717305.52
  0
VERTEX
  8
cont
 10
287035
 20
6717304.34
  0
VERTEX
  8
cont
 10
287037
 20
6717304.28
  0
VERTEX
  8
cont
 10
287038.12
 20
6717305
  0
VERTEX
  8
cont
 10
287039
 20
6717305.34
  0
VERTEX
  8
cont
 10
287041
 20
6717306.5
  0
VERTEX
  8
cont
 10
287041.52
 20
6717307
  0
VERTEX
  8
cont
 10
287043
 20
6717307.94
  0
VERTEX
  8
cont
 10
287045
 20
6717307.28
  0
VERTEX
  8
cont
 10
287047
 20
6717305.24
  0
VERTEX
  8
cont
 10
287049
 20
6717303.28
  0
VERTEX
  8
cont
 10
287051
 20
6717302.1
  0
VERTEX
  8
cont
 10
287051.76
 20
6717300.22
  0
VERTEX
  8
cont
 10
287053
 20
6717298.46
  0
VERTEX
  8
cont
 10
287055
 20
6717298.08
  0
VERTEX
  8
cont
 10
287057
 20
6717296.2
  0
VERTEX
  8
cont
 10
287058.04
 20
6717293.94
  0
VERTEX
  8
cont
 10
287058.46
 20
6717291.52
  0
VERTEX
  8
cont
 10
287059
 20
6717290.72
  0
VERTEX
  8
cont
 10
287060.02
 20
6717291
  0
VERTEX
  8
cont
 10
287061
 20
6717291.16
  0
VERTEX
  8
cont
 10
287061.9
 20
6717290.08
  0
VERTEX
  8
cont
 10
287061.22
 20
6717288.76
  0
VERTEX
  8
cont
 10
287060.82
 20
6717287.16
  0
VERTEX
  8
cont
 10
287061
 20
6717286.3
  0
VERTEX
  8
cont
 10
287063
 20
6717283.18
  0
VERTEX
  8
cont
 10
287063.2
 20
6717282.78
  0
VERTEX
  8
cont
 10
287062.76
 20
6717281.22
  0
VERTEX
  8
cont
 10
287061.94
 20
6717280.04
  0
VERTEX
  8
cont
 10
287061.5
 20
6717278.48
  0
VERTEX
  8
cont
 10
287060.46
 20
6717277.52
  0
VERTEX
  8
cont
 10
287059.58
 20
6717276.4
  0
VERTEX
  8
cont
 10
287058.62
 20
6717275.36
  0
VERTEX
  8
cont
 10
287058.38
 20
6717273.6
  0
VERTEX
  8
cont
 10
287057.1
 20
6717272.88
  0
VERTEX
  8
cont
 10
287056.84
 20
6717271.14
  0
VERTEX
  8
cont
 10
287056.3
 20
6717269.68
  0
VERTEX
  8
cont
 10
287055.9
 20
6717268.08
  0
VERTEX
  8
cont
 10
287054.8
 20
6717267.18
  0
VERTEX
  8
cont
 10
287053.84
 20
6717266.14
  0
VERTEX
  8
cont
 10
287051.6
 20
6717266.38
  0
VERTEX
  8
cont
 10
287049.8
 20
6717266.18
  0
VERTEX
  8
cont
 10
287047.94
 20
6717266.04
  0
VERTEX
  8
cont
 10
287047.38
 20
6717264.6
  0
VERTEX
  8
cont
 10
287045.62
 20
6717264.36
  0
VERTEX
  8
cont
 10
287045.4
 20
6717262.58
  0
VERTEX
  8
cont
 10
287045.32
 20
6717260.66
  0
VERTEX
  8
cont
 10
287043.92
 20
6717260.06
  0
VERTEX
  8
cont
 10
287043.54
 20
6717258.44
  0
VERTEX
  8
cont
 10
287043.52
 20
6717256.46
  0
VERTEX
  8
cont
 10
287043.56
 20
6717254.42
  0
VERTEX
  8
cont
 10
287043.94
 20
6717252.04
  0
VERTEX
  8
cont
 10
287045
 20
6717250.02
  0
VERTEX
  8
cont
 10
287047
 20
6717249.56
  0
VERTEX
  8
cont
 10
287047.92
 20
6717248.06
  0
VERTEX
  8
cont
 10
287049
 20
6717245.92
  0
VERTEX
  8
cont
 10
287049.88
 20
6717244.1
  0
VERTEX
  8
cont
 10
287051
 20
6717241.88
  0
VERTEX
  8
cont
 10
287051.92
 20
6717240.06
  0
VERTEX
  8
cont
 10
287051.82
 20
6717238.16
  0
VERTEX
  8
cont
 10
287053
 20
6717235.82
  0
VERTEX
  8
cont
 10
287053.26
 20
6717234.72
  0
VERTEX
  8
cont
 10
287052.1
 20
6717235
  0
VERTEX
  8
cont
 10
287049.88
 20
6717236.1
  0
VERTEX
  8
cont
 10
287047.68
 20
6717236.3
  0
VERTEX
  8
cont
 10
287045.82
 20
6717237
  0
VERTEX
  8
cont
 10
287044.38
 20
6717237.6
  0
VERTEX
  8
cont
 10
287042.56
 20
6717237.42
  0
VERTEX
  8
cont
 10
287040.38
 20
6717237.6
  0
VERTEX
  8
cont
 10
287037.56
 20
6717238.42
  0
VERTEX
  8
cont
 10
287035.92
 20
6717238.06
  0
VERTEX
  8
cont
 10
287035.48
 20
6717236.5
  0
VERTEX
  8
cont
 10
287033.48
 20
6717236.5
  0
VERTEX
  8
cont
 10
287032.26
 20
6717235.72
  0
VERTEX
  8
cont
 10
287031.24
 20
6717234.74
  0
VERTEX
  8
cont
 10
287029.96
 20
6717234.02
  0
VERTEX
  8
cont
 10
287029.18
 20
6717232.8
  0
VERTEX
  8
cont
 10
287028.52
 20
6717233
  0
VERTEX
  8
cont
 10
287025.46
 20
6717234.52
  0
VERTEX
  8
cont
 10
287024.12
 20
6717235
  0
VERTEX
  8
cont
 10
287023.58
 20
6717237
  0
VERTEX
  8
cont
 10
287022.26
 20
6717237.72
  0
VERTEX
  8
cont
 10
287019.76
 20
6717238.22
  0
VERTEX
  8
cont
 10
287019.56
 20
6717236.42
  0
VERTEX
  8
cont
 10
287018
 20
6717237
  0
VERTEX
  8
cont
 10
287016
 20
6717238
  0
VERTEX
  8
cont
 10
287014
 20
6717238
  0
VERTEX
  8
cont
 10
287013.92
 20
6717236.06
  0
VERTEX
  8
cont
 10
287012
 20
6717236
  0
VERTEX
  8
cont
 10
287011.9
 20
6717234.08
  0
VERTEX
  8
cont
 10
287010
 20
6717234
  0
VERTEX
  8
cont
 10
287010.26
 20
6717231.72
  0
VERTEX
  8
cont
 10
287011
 20
6717230
  0
VERTEX
  8
cont
 10
287011.58
 20
6717228.4
  0
VERTEX
  8
cont
 10
287009.8
 20
6717228.18
  0
VERTEX
  8
cont
 10
287009.96
 20
6717226.02
  0
VERTEX
  8
cont
 10
287010
 20
6717224
  0
VERTEX
  8
cont
 10
287010
 20
6717222
  0
VERTEX
  8
cont
 10
287011
 20
6717220.68
  0
VERTEX
  8
cont
 10
287011.52
 20
6717220.46
  0
VERTEX
  8
cont
 10
287011.88
 20
6717221
  0
VERTEX
  8
cont
 10
287011.88
 20
6717222.1
  0
VERTEX
  8
cont
 10
287013
 20
6717221.68
  0
VERTEX
  8
cont
 10
287013.7
 20
6717221
  0
VERTEX
  8
cont
 10
287015
 20
6717219.6
  0
VERTEX
  8
cont
 10
287015.48
 20
6717219
  0
SEQEND
  0
POLYLINE
 66
1
  8
cont
  0
VERTEX
  8
cont
 10
286975
 20
6717295.78
  0
VERTEX
  8
cont
 10
286974.14
 20
6717297
  0
VERTEX
  8
cont
 10
286973.7
 20
6717298.28
  0
VERTEX
  8
cont
 10
286973.72
 20
6717299
  0
VERTEX
  8
cont
 10
286973.88
 20
6717300.1
  0
VERTEX
  8
cont
 10
286974.48
 20
6717301.5
  0
VERTEX
  8
cont
 10
286975.68
 20
6717302.3
  0
VERTEX
  8
cont
 10
286978.2
 20
6717301
  0
VERTEX
  8
cont
 10
286979.12
 20
6717299
  0
VERTEX
  8
cont
 10
286979
 20
6717298.88
  0
VERTEX
  8
cont
 10
286977.96
 20
6717298.02
  0
VERTEX
  8
cont
 10
286977.54
 20
6717297
  0
VERTEX
  8
cont
 10
286977.52
 20
6717296.46
  0
VERTEX
  8
cont
 10
286977
 20
6717296.24
  0
VERTEX
  8
cont
 10
286976.12
 20
6717295.86
  0
VERTEX
  8
cont
 10
286975
 20
6717295.78
  0
SEQEND
  0
POLYLINE
 66
1
  8
cont
  0
VERTEX
  8
cont
 10
287035
 20
6717338.54
  0
VERTEX
  8
cont
 10
287033.68
 20
6717339
  0
VERTEX
  8
cont
 10
287034.28
 20
6717339.7
  0
VERTEX
  8
cont
 10
287035
 20
6717340.3
  0
VERTEX
  8
cont
 10
287035.58
 20
6717339
  0
VERTEX
  8
cont
 10
287035.28
 20
6717338.7
  0
VERTEX
  8
cont
 10
287035
 20
6717338.54
  0
SEQEND
  0
POLYLINE
 66
1
  8
cont
  0
VERTEX
  8
cont
 10
287043
 20
6717340.8
  0
VERTEX
  8
cont
 10
287042.38
 20
6717341
  0
VERTEX
  8
cont
 10
287042.68
 20
6717341.3
  0
VERTEX
  8
cont
 10
287043
 20
6717341.26
  0
VERTEX
  8
cont
 10
287043.1
 20
6717341
  0
VERTEX
  8
cont
 10
287043.12
 20
6717340.86
  0
VERTEX
  8
cont
 10
287043
 20
6717340.8
  0
SEQEND
  0
POLYLINE
 66
1
  8
cont
  0
VERTEX
  8
cont
 10
286967
 20
6717375.2
  0
VERTEX
  8
cont
 10
286968.64
 20
6717375.34
  0
VERTEX
  8
cont
 10
286969
 20
6717375.16
  0
VERTEX
  8
cont
 10
286969.38
 20
6717375
  0
VERTEX
  8
cont
 10
286971
 20
6717373.76
  0
VERTEX
  8
cont
 10
286973
 20
6717373.82
  0
VERTEX
  8
cont
 10
286975
 20
6717373.76
  0
VERTEX
  8
cont
 10
286977
 20
6717373.34
  0
VERTEX
  8
cont
 10
286979
 20
6717372.74
  0
VERTEX
  8
cont
 10
286980
 20
6717373
  0
VERTEX
  8
cont
 10
286981
 20
6717373.26
  0
VERTEX
  8
cont
 10
286983
 20
6717372.56
  0
VERTEX
  8
cont
 10
286983.96
 20
6717373
  0
VERTEX
  8
cont
 10
286985
 20
6717373.42
  0
VERTEX
  8
cont
 10
286987
 20
6717373.3
  0
VERTEX
  8
cont
 10
286989
 20
6717371.88
  0
VERTEX
  8
cont
 10
286991
 20
6717372.22
  0
VERTEX
  8
cont
 10
286993
 20
6717372.02
  0
VERTEX
  8
cont
 10
286995
 20
6717372
  0
VERTEX
  8
cont
 10
286997
 20
6717370.64
  0
VERTEX
  8
cont
 10
286999
 20
6717370.6
  0
VERTEX
  8
cont
 10
287000.08
 20
6717371
  0
VERTEX
  8
cont
 10
287001
 20
6717371.32
  0
VERTEX
  8
cont
 10
287003
 20
6717371.3
  0
VERTEX
  8
cont
 10
287005
 20
6717371.82
  0
VERTEX
  8
cont
 10
287007
 20
6717372.54
  0
VERTEX
  8
cont
 10
287008
 20
6717373
  0
VERTEX
  8
cont
 10
287009
 20
6717373.76
  0
VERTEX
  8
cont
 10
287010.22
 20
6717375
  0
VERTEX
  8
cont
 10
287011
 20
6717375.24
  0
VERTEX
  8
cont
 10
287013
 20
6717375.18
  0
VERTEX
  8
cont
 10
287013.4
 20
6717374.58
  0
VERTEX
  8
cont
 10
287015
 20
6717371.72
  0
VERTEX
  8
cont
 10
287017
 20
6717370.2
  0
VERTEX
  8
cont
 10
287019
 20
6717367.42
  0
VERTEX
  8
cont
 10
287020
 20
6717366
  0
VERTEX
  8
cont
 10
287021
 20
6717364
  0
VERTEX
  8
cont
 10
287023
 20
6717362.66
  0
VERTEX
  8
cont
 10
287025
 20
6717362.04
  0
VERTEX
  8
cont
 10
287027
 20
6717361.14
  0
VERTEX
  8
cont
 10
287029
 20
6717361.22
  0
VERTEX
  8
cont
 10
287031
 20
6717361.52
  0
VERTEX
  8
cont
 10
287033
 20
6717361.22
  0
VERTEX
  8
cont
 10
287035
 20
6717361.3
  0
VERTEX
  8
cont
 10
287037
 20
6717360.06
  0
VERTEX
  8
cont
 10
287039
 20
6717358.62
  0
VERTEX
  8
cont
 10
287041
 20
6717358
  0
VERTEX
  8
cont
 10
287043
 20
6717357.12
  0
VERTEX
  8
cont
 10
287045
 20
6717356.08
  0
VERTEX
  8
cont
 10
287047
 20
6717355.4
  0
VERTEX
  8
cont
 10
287049
 20
6717354.78
  0
VERTEX
  8
cont
 10
287051
 20
6717353.32
  0
VERTEX
  8
cont
 10
287051.18
 20
6717352.8
  0
VERTEX
  8
cont
 10
287053
 20
6717349.4
  0
VERTEX
  8
cont
 10
287055
 20
6717347.2
  0
VERTEX
  8
cont
 10
287057
 20
6717345.2
  0
VERTEX
  8
cont
 10
287057.36
 20
6717344.62
  0
VERTEX
  8
cont
 10
287057.72
 20
6717342.26
  0
VERTEX
  8
cont
 10
287056.4
 20
6717341.58
  0
VERTEX
  8
cont
 10
287054.7
 20
6717341.28
  0
VERTEX
  8
cont
 10
287053.86
 20
6717340.12
  0
VERTEX
  8
cont
 10
287052.62
 20
6717339.36
  0
VERTEX
  8
cont
 10
287051.7
 20
6717338.28
  0
VERTEX
  8
cont
 10
287051.36
 20
6717336.62
  0
VERTEX
  8
cont
 10
287051.38
 20
6717334.6
  0
VERTEX
  8
cont
 10
287050.4
 20
6717333.58
  0
VERTEX
  8
cont
 10
287050.22
 20
6717331.76
  0
VERTEX
  8
cont
 10
287050.24
 20
6717329.74
  0
VERTEX
  8
cont
 10
287050.14
 20
6717327.84
  0
VERTEX
  8
cont
 10
287050.38
 20
6717325.6
  0
VERTEX
  8
cont
 10
287051
 20
6717323.9
  0
VERTEX
  8
cont
 10
287051.3
 20
6717322.68
  0
VERTEX
  8
cont
 10
287051.86
 20
6717320.12
  0
VERTEX
  8
cont
 10
287050.86
 20
6717319.12
  0
VERTEX
  8
cont
 10
287051
 20
6717318.84
  0
VERTEX
  8
cont
 10
287053
 20
6717317.2
  0
VERTEX
  8
cont
 10
287053.12
 20
6717316.86
  0
VERTEX
  8
cont
 10
287053.16
 20
6717314.82
  0
VERTEX
  8
cont
 10
287053.46
 20
6717312.52
  0
VERTEX
  8
cont
 10
287053.62
 20
6717310.36
  0
VERTEX
  8
cont
 10
287055
 20
6717307.96
  0
VERTEX
  8
cont
 10
287056.54
 20
6717305.44
  0
VERTEX
  8
cont
 10
287056.78
 20
6717303.2
  0
VERTEX
  8
cont
 10
287057
 20
6717302.92
  0
VERTEX
  8
cont
 10
287059
 20
6717302.16
  0
VERTEX
  8
cont
 10
287061
 20
6717299.42
  0
VERTEX
  8
cont
 10
287063
 20
6717297.6
  0
VERTEX
  8
cont
 10
287065
 20
6717296.36
  0
VERTEX
  8
cont
 10
287067
 20
6717295.44
  0
VERTEX
  8
cont
 10
287069
 20
6717293.64
  0
VERTEX
  8
cont
 10
287071
 20
6717291.44
  0
VERTEX
  8
cont
 10
287071.78
 20
6717290.2
  0
VERTEX
  8
cont
 10
287073
 20
6717288.32
  0
VERTEX
  8
cont
 10
287073.22
 20
6717286.76
  0
VERTEX
  8
cont
 10
287071.42
 20
6717287
  0
VERTEX
  8
cont
 10
287070.82
 20
6717287.16
  0
VERTEX
  8
cont
 10
287068.92
 20
6717287.06
  0
VERTEX
  8
cont
 10
287067.22
 20
6717286.76
  0
VERTEX
  8
cont
 10
287066.06
 20
6717287
  0
VERTEX
  8
cont
 10
287064.88
 20
6717287.1
  0
VERTEX
  8
cont
 10
287065
 20
6717286.56
  0
VERTEX
  8
cont
 10
287067
 20
6717283.24
  0
VERTEX
  8
cont
 10
287069
 20
6717282.28
  0
VERTEX
  8
cont
 10
287071
 20
6717280.56
  0
VERTEX
  8
cont
 10
287073
 20
6717278.06
  0
VERTEX
  8
cont
 10
287075
 20
6717275.94
  0
VERTEX
  8
cont
 10
287075.32
 20
6717274.66
  0
VERTEX
  8
cont
 10
287075.24
 20
6717272.74
  0
VERTEX
  8
cont
 10
287073.78
 20
6717272.2
  0
VERTEX
  8
cont
 10
287073.86
 20
6717270.12
  0
VERTEX
  8
cont
 10
287074.06
 20
6717267.92
  0
VERTEX
  8
cont
 10
287073.56
 20
6717266.42
  0
VERTEX
  8
cont
 10
287074.24
 20
6717263.74
  0
VERTEX
  8
cont
 10
287075
 20
6717262.24
  0
VERTEX
  8
cont
 10
287077
 20
6717259.42
  0
VERTEX
  8
cont
 10
287079
 20
6717257.54
  0
VERTEX
  8
cont
 10
287079.58
 20
6717256.4
  0
VERTEX
  8
cont
 10
287081
 20
6717253.8
  0
VERTEX
  8
cont
 10
287083
 20
6717252.26
  0
VERTEX
  8
cont
 10
287083.52
 20
6717250.46
  0
VERTEX
  8
cont
 10
287082.24
 20
6717249.74
  0
VERTEX
  8
cont
 10
287081.24
 20
6717248.74
  0
VERTEX
  8
cont
 10
287081.18
 20
6717246.8
  0
VERTEX
  8
cont
 10
287080.74
 20
6717245.24
  0
VERTEX
  8
cont
 10
287080.18
 20
6717243.8
  0
VERTEX
  8
cont
 10
287080.1
 20
6717241.88
  0
VERTEX
  8
cont
 10
287078.38
 20
6717241.6
  0
VERTEX
  8
cont
 10
287079
 20
6717239.86
  0
VERTEX
  8
cont
 10
287081
 20
6717237.3
  0
VERTEX
  8
cont
 10
287081.2
 20
6717236.78
  0
VERTEX
  8
cont
 10
287081.1
 20
6717234.88
  0
VERTEX
  8
cont
 10
287081.14
 20
6717232.84
  0
VERTEX
  8
cont
 10
287082.64
 20
6717229.34
  0
VERTEX
  8
cont
 10
287083
 20
6717228.46
  0
VERTEX
  8
cont
 10
287085
 20
6717225.84
  0
VERTEX
  8
cont
 10
287085.52
 20
6717225
  0
VERTEX
  8
cont
 10
287085.42
 20
6717224.56
  0
VERTEX
  8
cont
 10
287085.9
 20
6717223
  0
VERTEX
  8
cont
 10
287085.94
 20
6717222.04
  0
VERTEX
  8
cont
 10
287085.74
 20
6717221
  0
VERTEX
  8
cont
 10
287087
 20
6717219.32
  0
VERTEX
  8
cont
 10
287087.44
 20
6717219
  0
SEQEND
  0
POLYLINE
 66
1
  8
cont
  0
VERTEX
  8
cont
 10
286967
 20
6717386.08
  0
VERTEX
  8
cont
 10
286967.58
 20
6717386.4
  0
VERTEX
  8
cont
 10
286969
 20
6717386.48
  0
VERTEX
  8
cont
 10
286969.66
 20
6717386.32
  0
VERTEX
  8
cont
 10
286971
 20
6717386.5
  0
VERTEX
  8
cont
 10
286971.64
 20
6717387
  0
VERTEX
  8
cont
 10
286973
 20
6717387.8
  0
VERTEX
  8
cont
 10
286975
 20
6717386.76
  0
VERTEX
  8
cont
 10
286975.88
 20
6717387
  0
VERTEX
  8
cont
 10
286977
 20
6717387.8
  0
VERTEX
  8
cont
 10
286979
 20
6717387.54
  0
VERTEX
  8
cont
 10
286981
 20
6717387.66
  0
VERTEX
  8
cont
 10
286983
 20
6717388.24
  0
VERTEX
  8
cont
 10
286985
 20
6717387.26
  0
VERTEX
  8
cont
 10
286987
 20
6717387.46
  0
VERTEX
  8
cont
 10
286989
 20
6717386.62
  0
VERTEX
  8
cont
 10
286991
 20
6717385.94
  0
VERTEX
  8
cont
 10
286993
 20
6717385.48
  0
VERTEX
  8
cont
 10
286995
 20
6717385.66
  0
VERTEX
  8
cont
 10
286997
 20
6717385.5
  0
VERTEX
  8
cont
 10
286999
 20
6717384.5
  0
VERTEX
  8
cont
 10
286999.94
 20
6717385
  0
VERTEX
  8
cont
 10
287001
 20
6717385.46
  0
VERTEX
  8
cont
 10
287003
 20
6717385.22
  0
VERTEX
  8
cont
 10
287005
 20
6717385.52
  0
VERTEX
  8
cont
 10
287007
 20
6717386.26
  0
VERTEX
  8
cont
 10
287009
 20
6717385.92
  0
VERTEX
  8
cont
 10
287011
 20
6717385.58
  0
VERTEX
  8
cont
 10
287013
 20
6717385.62
  0
VERTEX
  8
cont
 10
287015
 20
6717384.56
  0
VERTEX
  8
cont
 10
287017
 20
6717382.66
  0
VERTEX
  8
cont
 10
287019
 20
6717381.5
  0
VERTEX
  8
cont
 10
287021
 20
6717380.22
  0
VERTEX
  8
cont
 10
287023
 20
6717379.28
  0
VERTEX
  8
cont
 10
287025
 20
6717378.16
  0
VERTEX
  8
cont
 10
287027
 20
6717377.3
  0
VERTEX
  8
cont
 10
287029
 20
6717375.86
  0
VERTEX
  8
cont
 10
287031
 20
6717375.22
  0
VERTEX
  8
cont
 10
287033
 20
6717373.66
  0
VERTEX
  8
cont
 10
287035
 20
6717373.44
  0
VERTEX
  8
cont
 10
287037
 20
6717372.56
  0
VERTEX
  8
cont
 10
287038.5
 20
6717373
  0
VERTEX
  8
cont
 10
287039
 20
6717373.6
  0
VERTEX
  8
cont
 10
287041
 20
6717373.6
  0
VERTEX
  8
cont
 10
287043
 20
6717373.72
  0
VERTEX
  8
cont
 10
287044.68
 20
6717371.3
  0
VERTEX
  8
cont
 10
287045
 20
6717370.72
  0
VERTEX
  8
cont
 10
287047
 20
6717369.3
  0
VERTEX
  8
cont
 10
287047.8
 20
6717368.18
  0
VERTEX
  8
cont
 10
287049
 20
6717366.58
  0
VERTEX
  8
cont
 10
287051
 20
6717365.24
  0
VERTEX
  8
cont
 10
287053
 20
6717363.22
  0
VERTEX
  8
cont
 10
287053.28
 20
6717362.7
  0
VERTEX
  8
cont
 10
287055
 20
6717359.98
  0
VERTEX
  8
cont
 10
287057
 20
6717357.42
  0
VERTEX
  8
cont
 10
287057.24
 20
6717356.74
  0
VERTEX
  8
cont
 10
287058.4
 20
6717353.58
  0
VERTEX
  8
cont
 10
287059
 20
6717352.22
  0
VERTEX
  8
cont
 10
287060.04
 20
6717349.94
  0
VERTEX
  8
cont
 10
287061
 20
6717348.52
  0
VERTEX
  8
cont
 10
287063
 20
6717347.2
  0
VERTEX
  8
cont
 10
287065
 20
6717345.96
  0
VERTEX
  8
cont
 10
287067
 20
6717344.76
  0
VERTEX
  8
cont
 10
287069
 20
6717344.02
  0
VERTEX
  8
cont
 10
287071
 20
6717343.18
  0
VERTEX
  8
cont
 10
287072.02
 20
6717341.96
  0
VERTEX
  8
cont
 10
287071.96
 20
6717340.02
  0
VERTEX
  8
cont
 10
287070.4
 20
6717339.58
  0
VERTEX
  8
cont
 10
287068.72
 20
6717339.26
  0
VERTEX
  8
cont
 10
287067.52
 20
6717338.46
  0
VERTEX
  8
cont
 10
287066.28
 20
6717337.7
  0
VERTEX
  8
cont
 10
287064.84
 20
6717337.14
  0
VERTEX
  8
cont
 10
287063.54
 20
6717336.44
  0
VERTEX
  8
cont
 10
287062.28
 20
6717337
  0
VERTEX
  8
cont
 10
287060.28
 20
6717337.7
  0
VERTEX
  8
cont
 10
287058.62
 20
6717337.36
  0
VERTEX
  8
cont
 10
287057.78
 20
6717336.2
  0
VERTEX
  8
cont
 10
287055.72
 20
6717336.26
  0
VERTEX
  8
cont
 10
287055.8
 20
6717334.18
  0
VERTEX
  8
cont
 10
287057
 20
6717331.14
  0
VERTEX
  8
cont
 10
287057.22
 20
6717330.76
  0
VERTEX
  8
cont
 10
287056.72
 20
6717329.26
  0
VERTEX
  8
cont
 10
287056.4
 20
6717327.58
  0
VERTEX
  8
cont
 10
287055.94
 20
6717326.04
  0
VERTEX
  8
cont
 10
287056.54
 20
6717323.44
  0
VERTEX
  8
cont
 10
287056.38
 20
6717321.6
  0
VERTEX
  8
cont
 10
287056.48
 20
6717319.5
  0
VERTEX
  8
cont
 10
287056.76
 20
6717317.22
  0
VERTEX
  8
cont
 10
287057
 20
6717316.82
  0
VERTEX
  8
cont
 10
287059
 20
6717313.46
  0
VERTEX
  8
cont
 10
287059.4
 20
6717312.58
  0
VERTEX
  8
cont
 10
287060.26
 20
6717309.72
  0
VERTEX
  8
cont
 10
287059.8
 20
6717308.18
  0
VERTEX
  8
cont
 10
287061
 20
6717305.94
  0
VERTEX
  8
cont
 10
287061.5
 20
6717304.48
  0
VERTEX
  8
cont
 10
287063
 20
6717301.92
  0
VERTEX
  8
cont
 10
287065
 20
6717300.42
  0
VERTEX
  8
cont
 10
287067
 20
6717299.24
  0
VERTEX
  8
cont
 10
287067.4
 20
6717298.6
  0
VERTEX
  8
cont
 10
287069
 20
6717296.54
  0
VERTEX
  8
cont
 10
287071
 20
6717296.48
  0
VERTEX
  8
cont
 10
287073
 20
6717296.32
  0
VERTEX
  8
cont
 10
287075
 20
6717295.56
  0
VERTEX
  8
cont
 10
287077
 20
6717295.54
  0
VERTEX
  8
cont
 10
287079
 20
6717293.42
  0
VERTEX
  8
cont
 10
287081
 20
6717293.4
  0
VERTEX
  8
cont
 10
287082.8
 20
6717291.18
  0
VERTEX
  8
cont
 10
287083
 20
6717290.58
  0
VERTEX
  8
cont
 10
287084.06
 20
6717287.92
  0
VERTEX
  8
cont
 10
287085
 20
6717286.64
  0
VERTEX
  8
cont
 10
287086.02
 20
6717283.96
  0
VERTEX
  8
cont
 10
287083.48
 20
6717284.5
  0
VERTEX
  8
cont
 10
287082.5
 20
6717285
  0
VERTEX
  8
cont
 10
287080.54
 20
6717285.44
  0
VERTEX
  8
cont
 10
287080.06
 20
6717283.92
  0
VERTEX
  8
cont
 10
287078.3
 20
6717283.68
  0
VERTEX
  8
cont
 10
287079
 20
6717282.5
  0
VERTEX
  8
cont
 10
287081
 20
6717280.42
  0
VERTEX
  8
cont
 10
287083
 20
6717279.58
  0
VERTEX
  8
cont
 10
287084.14
 20
6717277.84
  0
VERTEX
  8
cont
 10
287085
 20
6717275.62
  0
VERTEX
  8
cont
 10
287085.66
 20
6717274.32
  0
VERTEX
  8
cont
 10
287085.94
 20
6717272.04
  0
VERTEX
  8
cont
 10
287085.32
 20
6717270.66
  0
VERTEX
  8
cont
 10
287083.54
 20
6717270.44
  0
VERTEX
  8
cont
 10
287082.44
 20
6717269.54
  0
VERTEX
  8
cont
 10
287081.98
 20
6717268
  0
VERTEX
  8
cont
 10
287083
 20
6717265.32
  0
VERTEX
  8
cont
 10
287083.22
 20
6717264.76
  0
VERTEX
  8
cont
 10
287083.32
 20
6717262.66
  0
VERTEX
  8
cont
 10
287083.6
 20
6717260.38
  0
VERTEX
  8
cont
 10
287085
 20
6717258.22
  0
VERTEX
  8
cont
 10
287087
 20
6717256
  0
VERTEX
  8
cont
 10
287089
 20
6717254.82
  0
VERTEX
  8
cont
 10
287091
 20
6717252.72
  0
VERTEX
  8
cont
 10
287093
 20
6717252.56
  0
VERTEX
  8
cont
 10
287095
 20
6717251.72
  0
VERTEX
  8
cont
 10
287097
 20
6717251.42
  0
VERTEX
  8
cont
 10
287098.44
 20
6717249.54
  0
VERTEX
  8
cont
 10
287097.96
 20
6717248.02
  0
VERTEX
  8
cont
 10
287096.64
 20
6717247.34
  0
VERTEX
  8
cont
 10
287095.42
 20
6717246.56
  0
VERTEX
  8
cont
 10
287093.6
 20
6717246.38
  0
VERTEX
  8
cont
 10
287092.48
 20
6717245.5
  0
VERTEX
  8
cont
 10
287092.06
 20
6717243.92
  0
VERTEX
  8
cont
 10
287092.18
 20
6717241.8
  0
VERTEX
  8
cont
 10
287091.5
 20
6717240.48
  0
VERTEX
  8
cont
 10
287090.2
 20
6717239.78
  0
VERTEX
  8
cont
 10
287089.42
 20
6717238.56
  0
VERTEX
  8
cont
 10
287089.44
 20
6717236.54
  0
VERTEX
  8
cont
 10
287089.8
 20
6717234.18
  0
VERTEX
  8
cont
 10
287089.96
 20
6717232.02
  0
VERTEX
  8
cont
 10
287091
 20
6717229.7
  0
VERTEX
  8
cont
 10
287093
 20
6717229.58
  0
VERTEX
  8
cont
 10
287095
 20
6717229.9
  0
VERTEX
  8
cont
 10
287097
 20
6717228.24
  0
VERTEX
  8
cont
 10
287097.84
 20
6717226.14
  0
VERTEX
  8
cont
 10
287097.66
 20
6717225
  0
VERTEX
  8
cont
 10
287097.78
 20
6717224.2
  0
VERTEX
  8
cont
 10
287097.62
 20
6717223
  0
VERTEX
  8
cont
 10
287097.84
 20
6717222.14
  0
VERTEX
  8
cont
 10
287098.4
 20
6717221
  0
VERTEX
  8
cont
 10
287099
 20
6717219.56
  0
VERTEX
  8
cont
 10
287099.4
 20
6717219
  0
SEQEND
  0
POLYLINE
 66
1
  8
cont
  0
VERTEX
  8
cont
 10
286969
 20
6717400.38
  0
VERTEX
  8
cont
 10
286967.92
 20
6717401
  0
VERTEX
  8
cont
 10
286967
 20
6717401.12
  0
SEQEND
  0
POLYLINE
 66
1
  8
cont
  0
VERTEX
  8
cont
 10
286969
 20
6717400.38
  0
VERTEX
  8
cont
 10
286969.9
 20
6717400.08
  0
VERTEX
  8
cont
 10
286971
 20
6717399.2
  0
VERTEX
  8
cont
 10
286972.56
 20
6717399
  0
VERTEX
  8
cont
 10
286973
 20
6717398.78
  0
VERTEX
  8
cont
 10
286975
 20
6717397.62
  0
VERTEX
  8
cont
 10
286977
 20
6717397.56
  0
VERTEX
  8
cont
 10
286979
 20
6717397.38
  0
VERTEX
  8
cont
 10
286981
 20
6717395.96
  0
VERTEX
  8
cont
 10
286983
 20
6717396.2
  0
VERTEX
  8
cont
 10
286985
 20
6717396.3
  0
VERTEX
  8
cont
 10
286987
 20
6717396.22
  0
VERTEX
  8
cont
 10
286989
 20
6717396.44
  0
VERTEX
  8
cont
 10
286990.7
 20
6717397
  0
VERTEX
  8
cont
 10
286991
 20
6717397.08
  0
VERTEX
  8
cont
 10
286993
 20
6717397.38
  0
VERTEX
  8
cont
 10
286995
 20
6717397.56
  0
VERTEX
  8
cont
 10
286997
 20
6717397.74
  0
VERTEX
  8
cont
 10
286999
 20
6717397.32
  0
VERTEX
  8
cont
 10
287001
 20
6717397.46
  0
VERTEX
  8
cont
 10
287003
 20
6717397.44
  0
VERTEX
  8
cont
 10
287005
 20
6717397.52
  0
VERTEX
  8
cont
 10
287007
 20
6717398.46
  0
VERTEX
  8
cont
 10
287009
 20
6717398.34
  0
VERTEX
  8
cont
 10
287011
 20
6717398.28
  0
VERTEX
  8
cont
 10
287013
 20
6717397.9
  0
VERTEX
  8
cont
 10
287015
 20
6717396.72
  0
VERTEX
  8
cont
 10
287017
 20
6717395.78
  0
VERTEX
  8
cont
 10
287019
 20
6717395.38
  0
VERTEX
  8
cont
 10
287021
 20
6717393.48
  0
VERTEX
  8
cont
 10
287023
 20
6717393.22
  0
VERTEX
  8
cont
 10
287025
 20
6717392
  0
VERTEX
  8
cont
 10
287027
 20
6717390.48
  0
VERTEX
  8
cont
 10
287029
 20
6717388.28
  0
VERTEX
  8
cont
 10
287031
 20
6717386.74
  0
VERTEX
  8
cont
 10
287033
 20
6717385.86
  0
VERTEX
  8
cont
 10
287035
 20
6717385.1
  0
VERTEX
  8
cont
 10
287037
 20
6717383.32
  0
VERTEX
  8
cont
 10
287039
 20
6717384.18
  0
VERTEX
  8
cont
 10
287040.76
 20
6717385
  0
VERTEX
  8
cont
 10
287041
 20
6717385.04
  0
VERTEX
  8
cont
 10
287043
 20
6717385.16
  0
VERTEX
  8
cont
 10
287045
 20
6717385.16
  0
VERTEX
  8
cont
 10
287047
 20
6717383.82
  0
VERTEX
  8
cont
 10
287049
 20
6717383.74
  0
VERTEX
  8
cont
 10
287051
 20
6717383.12
  0
VERTEX
  8
cont
 10
287051.16
 20
6717382.82
  0
VERTEX
  8
cont
 10
287053
 20
6717379.58
  0
VERTEX
  8
cont
 10
287055
 20
6717378.26
  0
VERTEX
  8
cont
 10
287057
 20
6717376.04
  0
VERTEX
  8
cont
 10
287057.48
 20
6717374.5
  0
VERTEX
  8
cont
 10
287059
 20
6717371.56
  0
VERTEX
  8
cont
 10
287061
 20
6717370.38
  0
VERTEX
  8
cont
 10
287063
 20
6717369.26
  0
VERTEX
  8
cont
 10
287065
 20
6717368.62
  0
VERTEX
  8
cont
 10
287067
 20
6717368.34
  0
VERTEX
  8
cont
 10
287069
 20
6717365.92
  0
VERTEX
  8
cont
 10
287069.22
 20
6717364.76
  0
VERTEX
  8
cont
 10
287069.28
 20
6717362.7
  0
VERTEX
  8
cont
 10
287068.6
 20
6717361.38
  0
VERTEX
  8
cont
 10
287069
 20
6717359.84
  0
VERTEX
  8
cont
 10
287069.42
 20
6717358.56
  0
VERTEX
  8
cont
 10
287071
 20
6717355.56
  0
VERTEX
  8
cont
 10
287071.94
 20
6717354.04
  0
VERTEX
  8
cont
 10
287071.72
 20
6717352.26
  0
VERTEX
  8
cont
 10
287071.92
 20
6717350.06
  0
VERTEX
  8
cont
 10
287073
 20
6717347.7
  0
VERTEX
  8
cont
 10
287075
 20
6717346.36
  0
VERTEX
  8
cont
 10
287077
 20
6717345.88
  0
VERTEX
  8
cont
 10
287079
 20
6717345.56
  0
VERTEX
  8
cont
 10
287081
 20
6717343.98
  0
VERTEX
  8
cont
 10
287083
 20
6717344.08
  0
VERTEX
  8
cont
 10
287085
 20
6717343.4
  0
VERTEX
  8
cont
 10
287087
 20
6717343.62
  0
VERTEX
  8
cont
 10
287089
 20
6717343.04
  0
VERTEX
  8
cont
 10
287091
 20
6717341.62
  0
VERTEX
  8
cont
 10
287093
 20
6717341.24
  0
VERTEX
  8
cont
 10
287093.7
 20
6717340.28
  0
VERTEX
  8
cont
 10
287093.2
 20
6717338.78
  0
VERTEX
  8
cont
 10
287091.94
 20
6717338.04
  0
VERTEX
  8
cont
 10
287090.38
 20
6717337.62
  0
VERTEX
  8
cont
 10
287088.46
 20
6717337.52
  0
VERTEX
  8
cont
 10
287086.46
 20
6717337.52
  0
VERTEX
  8
cont
 10
287084.76
 20
6717337.22
  0
VERTEX
  8
cont
 10
287083.8
 20
6717336.18
  0
VERTEX
  8
cont
 10
287081.54
 20
6717336.44
  0
VERTEX
  8
cont
 10
287079.5
 20
6717336.48
  0
VERTEX
  8
cont
 10
287078.32
 20
6717335.66
  0
VERTEX
  8
cont
 10
287077.92
 20
6717334.06
  0
VERTEX
  8
cont
 10
287077.86
 20
6717332.12
  0
VERTEX
  8
cont
 10
287077.28
 20
6717330.7
  0
VERTEX
  8
cont
 10
287075.8
 20
6717330.18
  0
VERTEX
  8
cont
 10
287074.26
 20
6717329.72
  0
VERTEX
  8
cont
 10
287072.2
 20
6717329.78
  0
VERTEX
  8
cont
 10
287070.22
 20
6717329.76
  0
VERTEX
  8
cont
 10
287069.72
 20
6717328.26
  0
VERTEX
  8
cont
 10
287068.62
 20
6717327.36
  0
VERTEX
  8
cont
 10
287067.6
 20
6717326.38
  0
VERTEX
  8
cont
 10
287067.1
 20
6717324.88
  0
VERTEX
  8
cont
 10
287065.38
 20
6717324.6
  0
VERTEX
  8
cont
 10
287063.92
 20
6717324.06
  0
VERTEX
  8
cont
 10
287063.32
 20
6717322.66
  0
VERTEX
  8
cont
 10
287063.06
 20
6717320.92
  0
VERTEX
  8
cont
 10
287061.84
 20
6717320.14
  0
VERTEX
  8
cont
 10
287063
 20
6717317.34
  0
VERTEX
  8
cont
 10
287063.16
 20
6717316.82
  0
VERTEX
  8
cont
 10
287065
 20
6717313.66
  0
VERTEX
  8
cont
 10
287067
 20
6717311.34
  0
VERTEX
  8
cont
 10
287067.82
 20
6717310.16
  0
VERTEX
  8
cont
 10
287069
 20
6717308.12
  0
VERTEX
  8
cont
 10
287071
 20
6717305.52
  0
VERTEX
  8
cont
 10
287073
 20
6717303.44
  0
VERTEX
  8
cont
 10
287074.26
 20
6717301.72
  0
VERTEX
  8
cont
 10
287075
 20
6717300.66
  0
VERTEX
  8
cont
 10
287077
 20
6717298.32
  0
VERTEX
  8
cont
 10
287079
 20
6717297.58
  0
VERTEX
  8
cont
 10
287081
 20
6717295.9
  0
VERTEX
  8
cont
 10
287083
 20
6717295.08
  0
VERTEX
  8
cont
 10
287085
 20
6717293.84
  0
VERTEX
  8
cont
 10
287087
 20
6717293.2
  0
VERTEX
  8
cont
 10
287089
 20
6717291.78
  0
VERTEX
  8
cont
 10
287091
 20
6717290.62
  0
VERTEX
  8
cont
 10
287093
 20
6717289.16
  0
VERTEX
  8
cont
 10
287095
 20
6717288.3
  0
VERTEX
  8
cont
 10
287097
 20
6717287.5
  0
VERTEX
  8
cont
 10
287099
 20
6717287.1
  0
VERTEX
  8
cont
 10
287101
 20
6717285.96
  0
VERTEX
  8
cont
 10
287103
 20
6717285.1
  0
VERTEX
  8
cont
 10
287103.76
 20
6717284.22
  0
VERTEX
  8
cont
 10
287102.3
 20
6717283.68
  0
VERTEX
  8
cont
 10
287101.06
 20
6717282.92
  0
VERTEX
  8
cont
 10
287100.22
 20
6717283
  0
VERTEX
  8
cont
 10
287098.66
 20
6717283.32
  0
VERTEX
  8
cont
 10
287097.28
 20
6717282.7
  0
VERTEX
  8
cont
 10
287095.82
 20
6717282.16
  0
VERTEX
  8
cont
 10
287094.12
 20
6717281.86
  0
VERTEX
  8
cont
 10
287093.18
 20
6717280.8
  0
VERTEX
  8
cont
 10
287092.78
 20
6717279.2
  0
VERTEX
  8
cont
 10
287092.12
 20
6717277.86
  0
VERTEX
  8
cont
 10
287093
 20
6717275.38
  0
VERTEX
  8
cont
 10
287093.2
 20
6717274.78
  0
VERTEX
  8
cont
 10
287094.2
 20
6717271.78
  0
VERTEX
  8
cont
 10
287095
 20
6717270.78
  0
VERTEX
  8
cont
 10
287097
 20
6717268.48
  0
VERTEX
  8
cont
 10
287099
 20
6717267.68
  0
VERTEX
  8
cont
 10
287101
 20
6717266.58
  0
VERTEX
  8
cont
 10
287103
 20
6717265.82
  0
VERTEX
  8
cont
 10
287105
 20
6717265.16
  0
VERTEX
  8
cont
 10
287107
 20
6717263.54
  0
VERTEX
  8
cont
 10
287109
 20
6717262.2
  0
VERTEX
  8
cont
 10
287111
 20
6717261.32
  0
VERTEX
  8
cont
 10
287113
 20
6717259.2
  0
VERTEX
  8
cont
 10
287113.14
 20
6717258.84
  0
VERTEX
  8
cont
 10
287114.18
 20
6717255.8
  0
VERTEX
  8
cont
 10
287115
 20
6717253.9
  0
VERTEX
  8
cont
 10
287117
 20
6717253.26
  0
VERTEX
  8
cont
 10
287117.48
 20
6717252.5
  0
VERTEX
  8
cont
 10
287118.06
 20
6717249.92
  0
VERTEX
  8
cont
 10
287119
 20
6717247.96
  0
VERTEX
  8
cont
 10
287119.36
 20
6717246.62
  0
VERTEX
  8
cont
 10
287119.28
 20
6717244.7
  0
VERTEX
  8
cont
 10
287117.62
 20
6717244.36
  0
VERTEX
  8
cont
 10
287116.02
 20
6717243.96
  0
VERTEX
  8
cont
 10
287115.14
 20
6717242.84
  0
VERTEX
  8
cont
 10
287114.08
 20
6717241.9
  0
VERTEX
  8
cont
 10
287113.1
 20
6717240.88
  0
VERTEX
  8
cont
 10
287111.16
 20
6717240.82
  0
VERTEX
  8
cont
 10
287109.44
 20
6717240.54
  0
VERTEX
  8
cont
 10
287111
 20
6717237.26
  0
VERTEX
  8
cont
 10
287111.76
 20
6717236.22
  0
VERTEX
  8
cont
 10
287111.7
 20
6717234.28
  0
VERTEX
  8
cont
 10
287111.58
 20
6717232.4
  0
VERTEX
  8
cont
 10
287110.48
 20
6717231.5
  0
VERTEX
  8
cont
 10
287110.62
 20
6717229.36
  0
VERTEX
  8
cont
 10
287110.68
 20
6717227.3
  0
VERTEX
  8
cont
 10
287110.62
 20
6717225.36
  0
VERTEX
  8
cont
 10
287110.64
 20
6717225
  0
VERTEX
  8
cont
 10
287111
 20
6717224.06
  0
VERTEX
  8
cont
 10
287111.32
 20
6717223
  0
VERTEX
  8
cont
 10
287111.32
 20
6717222.66
  0
VERTEX
  8
cont
 10
287111.24
 20
6717221
  0
VERTEX
  8
cont
 10
287111.28
 20
6717220.7
  0
VERTEX
  8
cont
 10
287111.28
 20
6717219
  0
SEQEND
  0
POLYLINE
 66
1
  8
cont
  0
VERTEX
  8
cont
 10
286969
 20
6717402.92
  0
VERTEX
  8
cont
 10
286968.62
 20
6717403
  0
VERTEX
  8
cont
 10
286967
 20
6717403.76
  0
SEQEND
  0
POLYLINE
 66
1
  8
cont
  0
VERTEX
  8
cont
 10
286967
 20
6717446.68
  0
VERTEX
  8
cont
 10
286967.26
 20
6717446.72
  0
VERTEX
  8
cont
 10
286967.48
 20
6717447
  0
VERTEX
  8
cont
 10
286967.52
 20
6717448.46
  0
VERTEX
  8
cont
 10
286967.6
 20
6717449
  0
VERTEX
  8
cont
 10
286969
 20
6717450.44
  0
VERTEX
  8
cont
 10
286969.18
 20
6717451
  0
VERTEX
  8
cont
 10
286968.72
 20
6717453
  0
VERTEX
  8
cont
 10
286968.64
 20
6717455
  0
VERTEX
  8
cont
 10
286967.58
 20
6717457
  0
VERTEX
  8
cont
 10
286968.34
 20
6717459
  0
VERTEX
  8
cont
 10
286969
 20
6717460.72
  0
VERTEX
  8
cont
 10
286969.12
 20
6717461
  0
VERTEX
  8
cont
 10
286969.72
 20
6717463
  0
VERTEX
  8
cont
 10
286970.44
 20
6717465
  0
VERTEX
  8
cont
 10
286970.38
 20
6717467
  0
VERTEX
  8
cont
 10
286970.5
 20
6717469
  0
VERTEX
  8
cont
 10
286970.7
 20
6717471
  0
VERTEX
  8
cont
 10
286969.94
 20
6717473
  0
VERTEX
  8
cont
 10
286969.46
 20
6717474.52
  0
VERTEX
  8
cont
 10
286969.24
 20
6717475
  0
VERTEX
  8
cont
 10
286969
 20
6717475.26
  0
VERTEX
  8
cont
 10
286967.26
 20
6717477
  0
VERTEX
  8
cont
 10
286967.26
 20
6717478.72
  0
VERTEX
  8
cont
 10
286967.38
 20
6717479
  0
VERTEX
  8
cont
 10
286967
 20
6717479.74
  0
SEQEND
  0
POLYLINE
 66
1
  8
cont
  0
VERTEX
  8
cont
 10
286967
 20
6717487.64
  0
VERTEX
  8
cont
 10
286968.28
 20
6717487.7
  0
VERTEX
  8
cont
 10
286969
 20
6717487.56
  0
VERTEX
  8
cont
 10
286970.48
 20
6717487.5
  0
VERTEX
  8
cont
 10
286971
 20
6717487.44
  0
VERTEX
  8
cont
 10
286973
 20
6717486.62
  0
VERTEX
  8
cont
 10
286973.88
 20
6717487
  0
VERTEX
  8
cont
 10
286975
 20
6717488.02
  0
VERTEX
  8
cont
 10
286975.62
 20
6717489
  0
VERTEX
  8
cont
 10
286976.2
 20
6717491
  0
VERTEX
  8
cont
 10
286976.04
 20
6717493
  0
VERTEX
  8
cont
 10
286976.26
 20
6717495
  0
VERTEX
  8
cont
 10
286977
 20
6717496
  0
VERTEX
  8
cont
 10
286977.48
 20
6717497
  0
VERTEX
  8
cont
 10
286976
 20
6717499
  0
VERTEX
  8
cont
 10
286975.72
 20
6717501
  0
VERTEX
  8
cont
 10
286975.62
 20
6717503
  0
VERTEX
  8
cont
 10
286974.06
 20
6717505
  0
VERTEX
  8
cont
 10
286974.06
 20
6717507
  0
VERTEX
  8
cont
 10
286973.74
 20
6717509
  0
VERTEX
  8
cont
 10
286972.7
 20
6717511
  0
VERTEX
  8
cont
 10
286973
 20
6717511.4
  0
VERTEX
  8
cont
 10
286975
 20
6717512.4
  0
VERTEX
  8
cont
 10
286977
 20
6717512.54
  0
VERTEX
  8
cont
 10
286979
 20
6717512.52
  0
VERTEX
  8
cont
 10
286979.98
 20
6717513
  0
VERTEX
  8
cont
 10
286981
 20
6717514
  0
VERTEX
  8
cont
 10
286983
 20
6717514.3
  0
VERTEX
  8
cont
 10
286983.66
 20
6717515
  0
VERTEX
  8
cont
 10
286984
 20
6717517
  0
VERTEX
  8
cont
 10
286985
 20
6717518
  0
VERTEX
  8
cont
 10
286985.66
 20
6717519
  0
VERTEX
  8
cont
 10
286987
 20
6717520.32
  0
VERTEX
  8
cont
 10
286987.66
 20
6717521
  0
VERTEX
  8
cont
 10
286989
 20
6717522.32
  0
VERTEX
  8
cont
 10
286989.48
 20
6717523
  0
VERTEX
  8
cont
 10
286989.62
 20
6717525
  0
VERTEX
  8
cont
 10
286990.1
 20
6717527
  0
VERTEX
  8
cont
 10
286991
 20
6717528
  0
VERTEX
  8
cont
 10
286991.94
 20
6717529
  0
VERTEX
  8
cont
 10
286993
 20
6717530.04
  0
VERTEX
  8
cont
 10
286993.8
 20
6717531
  0
VERTEX
  8
cont
 10
286992.28
 20
6717533
  0
VERTEX
  8
cont
 10
286992.38
 20
6717533.6
  0
VERTEX
  8
cont
 10
286993
 20
6717533.98
  0
VERTEX
  8
cont
 10
286994
 20
6717533.98
  0
VERTEX
  8
cont
 10
286995
 20
6717534
  0
VERTEX
  8
cont
 10
286995.84
 20
6717534.14
  0
VERTEX
  8
cont
 10
286995.88
 20
6717535
  0
SEQEND
  0
POLYLINE
 66
1
  8
cont
  0
VERTEX
  8
cont
 10
286967
 20
6717506
  0
VERTEX
  8
cont
 10
286967.46
 20
6717506.52
  0
VERTEX
  8
cont
 10
286967.6
 20
6717507
  0
VERTEX
  8
cont
 10
286967.82
 20
6717508.16
  0
VERTEX
  8
cont
 10
286967.56
 20
6717509
  0
VERTEX
  8
cont
 10
286967
 20
6717509.3
  0
SEQEND
  0
POLYLINE
 66
1
  8
cont
  0
VERTEX
  8
cont
 10
286969
 20
6717402.92
  0
VERTEX
  8
cont
 10
286969.18
 20
6717402.8
  0
VERTEX
  8
cont
 10
286971
 20
6717402.04
  0
VERTEX
  8
cont
 10
286972.66
 20
6717401
  0
VERTEX
  8
cont
 10
286973
 20
6717400.88
  0
VERTEX
  8
cont
 10
286975
 20
6717400.94
  0
VERTEX
  8
cont
 10
286976.04
 20
6717401
  0
VERTEX
  8
cont
 10
286977
 20
6717401.04
  0
VERTEX
  8
cont
 10
286979
 20
6717399.98
  0
VERTEX
  8
cont
 10
286981
 20
6717399.98
  0
VERTEX
  8
cont
 10
286983
 20
6717399.9
  0
VERTEX
  8
cont
 10
286985
 20
6717399.94
  0
VERTEX
  8
cont
 10
286987
 20
6717400.06
  0
VERTEX
  8
cont
 10
286989
 20
6717400.18
  0
VERTEX
  8
cont
 10
286990.34
 20
6717401
  0
VERTEX
  8
cont
 10
286991
 20
6717401.42
  0
VERTEX
  8
cont
 10
286993
 20
6717401.4
  0
VERTEX
  8
cont
 10
286995
 20
6717401.5
  0
VERTEX
  8
cont
 10
286997
 20
6717400.84
  0
VERTEX
  8
cont
 10
286997.56
 20
6717401
  0
VERTEX
  8
cont
 10
286999
 20
6717401.72
  0
VERTEX
  8
cont
 10
287001
 20
6717401.84
  0
VERTEX
  8
cont
 10
287003
 20
6717402.66
  0
VERTEX
  8
cont
 10
287003.36
 20
6717403
  0
VERTEX
  8
cont
 10
287005
 20
6717404.5
  0
VERTEX
  8
cont
 10
287006.04
 20
6717405
  0
VERTEX
  8
cont
 10
287007
 20
6717405.36
  0
VERTEX
  8
cont
 10
287009
 20
6717406.68
  0
VERTEX
  8
cont
 10
287009.34
 20
6717407
  0
VERTEX
  8
cont
 10
287011
 20
6717408.14
  0
VERTEX
  8
cont
 10
287013
 20
6717408.82
  0
VERTEX
  8
cont
 10
287015
 20
6717408.78
  0
VERTEX
  8
cont
 10
287016.14
 20
6717409
  0
VERTEX
  8
cont
 10
287017
 20
6717409.3
  0
VERTEX
  8
cont
 10
287019
 20
6717409.32
  0
VERTEX
  8
cont
 10
287021
 20
6717408.74
  0
VERTEX
  8
cont
 10
287023
 20
6717407.98
  0
VERTEX
  8
cont
 10
287025
 20
6717406.56
  0
VERTEX
  8
cont
 10
287027
 20
6717405.56
  0
VERTEX
  8
cont
 10
287028.16
 20
6717403.82
  0
VERTEX
  8
cont
 10
287029
 20
6717402.08
  0
VERTEX
  8
cont
 10
287029.4
 20
6717400.58
  0
VERTEX
  8
cont
 10
287030.42
 20
6717397.56
  0
VERTEX
  8
cont
 10
287031
 20
6717395.98
  0
VERTEX
  8
cont
 10
287033
 20
6717394.3
  0
VERTEX
  8
cont
 10
287035
 20
6717391.36
  0
VERTEX
  8
cont
 10
287037
 20
6717390.18
  0
VERTEX
  8
cont
 10
287039
 20
6717390.02
  0
VERTEX
  8
cont
 10
287041
 20
6717389.46
  0
VERTEX
  8
cont
 10
287043
 20
6717390.1
  0
VERTEX
  8
cont
 10
287045
 20
6717390.64
  0
VERTEX
  8
cont
 10
287046.4
 20
6717391
  0
VERTEX
  8
cont
 10
287047
 20
6717391.1
  0
VERTEX
  8
cont
 10
287049
 20
6717391.1
  0
VERTEX
  8
cont
 10
287051
 20
6717391.58
  0
VERTEX
  8
cont
 10
287053
 20
6717390.66
  0
VERTEX
  8
cont
 10
287055
 20
6717389.64
  0
VERTEX
  8
cont
 10
287057
 20
6717387.6
  0
VERTEX
  8
cont
 10
287059
 20
6717386.34
  0
VERTEX
  8
cont
 10
287061
 20
6717385.42
  0
VERTEX
  8
cont
 10
287063
 20
6717384.4
  0
VERTEX
  8
cont
 10
287065
 20
6717384
  0
VERTEX
  8
cont
 10
287067
 20
6717383.88
  0
VERTEX
  8
cont
 10
287069
 20
6717383.1
  0
VERTEX
  8
cont
 10
287071
 20
6717382.36
  0
VERTEX
  8
cont
 10
287073
 20
6717381.44
  0
VERTEX
  8
cont
 10
287075
 20
6717380.26
  0
VERTEX
  8
cont
 10
287077
 20
6717378.62
  0
VERTEX
  8
cont
 10
287079
 20
6717377.78
  0
VERTEX
  8
cont
 10
287081
 20
6717377.18
  0
VERTEX
  8
cont
 10
287083
 20
6717375.56
  0
VERTEX
  8
cont
 10
287085
 20
6717373.6
  0
VERTEX
  8
cont
 10
287087
 20
6717371.92
  0
VERTEX
  8
cont
 10
287089
 20
6717371.3
  0
VERTEX
  8
cont
 10
287091
 20
6717369.48
  0
VERTEX
  8
cont
 10
287091.14
 20
6717368.84
  0
VERTEX
  8
cont
 10
287089.68
 20
6717368.3
  0
VERTEX
  8
cont
 10
287089.26
 20
6717366.72
  0
VERTEX
  8
cont
 10
287088.06
 20
6717365.92
  0
VERTEX
  8
cont
 10
287087.48
 20
6717364.5
  0
VERTEX
  8
cont
 10
287087.56
 20
6717362.42
  0
VERTEX
  8
cont
 10
287086.5
 20
6717361.48
  0
VERTEX
  8
cont
 10
287086.26
 20
6717359.72
  0
VERTEX
  8
cont
 10
287087
 20
6717358
  0
VERTEX
  8
cont
 10
287089
 20
6717355.4
  0
VERTEX
  8
cont
 10
287089.32
 20
6717354.66
  0
VERTEX
  8
cont
 10
287091
 20
6717351.42
  0
VERTEX
  8
cont
 10
287093
 20
6717351.48
  0
VERTEX
  8
cont
 10
287095
 20
6717351.34
  0
VERTEX
  8
cont
 10
287097
 20
6717351.46
  0
VERTEX
  8
cont
 10
287099
 20
6717351.42
  0
VERTEX
  8
cont
 10
287101
 20
6717349.56
  0
VERTEX
  8
cont
 10
287103
 20
6717347.46
  0
VERTEX
  8
cont
 10
287105
 20
6717347.4
  0
VERTEX
  8
cont
 10
287107
 20
6717346.42
  0
VERTEX
  8
cont
 10
287109
 20
6717346.26
  0
VERTEX
  8
cont
 10
287111
 20
6717345.32
  0
VERTEX
  8
cont
 10
287113
 20
6717344.36
  0
VERTEX
  8
cont
 10
287114.42
 20
6717341.56
  0
VERTEX
  8
cont
 10
287115
 20
6717340.3
  0
VERTEX
  8
cont
 10
287117
 20
6717339.42
  0
VERTEX
  8
cont
 10
287119
 20
6717338
  0
VERTEX
  8
cont
 10
287119.64
 20
6717336.34
  0
VERTEX
  8
cont
 10
287118.34
 20
6717335.64
  0
VERTEX
  8
cont
 10
287119
 20
6717334
  0
VERTEX
  8
cont
 10
287119.38
 20
6717332.6
  0
VERTEX
  8
cont
 10
287118.04
 20
6717331.94
  0
VERTEX
  8
cont
 10
287118.14
 20
6717329.84
  0
VERTEX
  8
cont
 10
287119
 20
6717327.9
  0
VERTEX
  8
cont
 10
287119.24
 20
6717326.74
  0
VERTEX
  8
cont
 10
287118
 20
6717327
  0
VERTEX
  8
cont
 10
287116.7
 20
6717327.28
  0
VERTEX
  8
cont
 10
287115.3
 20
6717326.68
  0
VERTEX
  8
cont
 10
287113.3
 20
6717326.68
  0
VERTEX
  8
cont
 10
287111.22
 20
6717326.76
  0
VERTEX
  8
cont
 10
287109.6
 20
6717326.38
  0
VERTEX
  8
cont
 10
287107.44
 20
6717326.54
  0
VERTEX
  8
cont
 10
287106.44
 20
6717327
  0
VERTEX
  8
cont
 10
287104.28
 20
6717327.7
  0
VERTEX
  8
cont
 10
287102.24
 20
6717327.74
  0
VERTEX
  8
cont
 10
287100.58
 20
6717327.4
  0
VERTEX
  8
cont
 10
287098.4
 20
6717327.58
  0
VERTEX
  8
cont
 10
287096.42
 20
6717327.56
  0
VERTEX
  8
cont
 10
287096.68
 20
6717325.3
  0
VERTEX
  8
cont
 10
287095.8
 20
6717324.18
  0
VERTEX
  8
cont
 10
287094.22
 20
6717323.76
  0
VERTEX
  8
cont
 10
287092.54
 20
6717323.44
  0
VERTEX
  8
cont
 10
287090.16
 20
6717323.82
  0
VERTEX
  8
cont
 10
287088.24
 20
6717323.74
  0
VERTEX
  8
cont
 10
287086.32
 20
6717323.66
  0
VERTEX
  8
cont
 10
287084.6
 20
6717323.38
  0
VERTEX
  8
cont
 10
287082.44
 20
6717323.54
  0
VERTEX
  8
cont
 10
287080.62
 20
6717323.36
  0
VERTEX
  8
cont
 10
287079.24
 20
6717322.74
  0
VERTEX
  8
cont
 10
287077.24
 20
6717322.74
  0
VERTEX
  8
cont
 10
287075.66
 20
6717322.32
  0
VERTEX
  8
cont
 10
287074.42
 20
6717321.56
  0
VERTEX
  8
cont
 10
287074.2
 20
6717319.78
  0
VERTEX
  8
cont
 10
287075
 20
6717317.3
  0
VERTEX
  8
cont
 10
287076
 20
6717316
  0
VERTEX
  8
cont
 10
287077
 20
6717314.46
  0
VERTEX
  8
cont
 10
287079
 20
6717313.72
  0
VERTEX
  8
cont
 10
287081
 20
6717311.76
  0
VERTEX
  8
cont
 10
287083
 20
6717310.16
  0
VERTEX
  8
cont
 10
287085
 20
6717309.3
  0
VERTEX
  8
cont
 10
287087
 20
6717308.12
  0
VERTEX
  8
cont
 10
287089
 20
6717307.08
  0
VERTEX
  8
cont
 10
287091
 20
6717307.04
  0
VERTEX
  8
cont
 10
287093
 20
6717305.92
  0
VERTEX
  8
cont
 10
287094.66
 20
6717303.32
  0
VERTEX
  8
cont
 10
287093.94
 20
6717302.04
  0
VERTEX
  8
cont
 10
287092.08
 20
6717301.9
  0
VERTEX
  8
cont
 10
287090.6
 20
6717301.38
  0
VERTEX
  8
cont
 10
287089.32
 20
6717300.66
  0
VERTEX
  8
cont
 10
287088.56
 20
6717299.42
  0
VERTEX
  8
cont
 10
287088.6
 20
6717297.38
  0
VERTEX
  8
cont
 10
287089
 20
6717296.72
  0
VERTEX
  8
cont
 10
287091
 20
6717295.76
  0
VERTEX
  8
cont
 10
287093
 20
6717294.56
  0
VERTEX
  8
cont
 10
287095
 20
6717293.42
  0
VERTEX
  8
cont
 10
287097
 20
6717291.98
  0
VERTEX
  8
cont
 10
287099
 20
6717291.3
  0
VERTEX
  8
cont
 10
287101
 20
6717291.62
  0
VERTEX
  8
cont
 10
287103
 20
6717290.88
  0
VERTEX
  8
cont
 10
287105
 20
6717289.58
  0
VERTEX
  8
cont
 10
287107
 20
6717288.78
  0
VERTEX
  8
cont
 10
287109
 20
6717288.1
  0
VERTEX
  8
cont
 10
287111
 20
6717286.6
  0
VERTEX
  8
cont
 10
287113
 20
6717286.78
  0
VERTEX
  8
cont
 10
287115
 20
6717286.02
  0
VERTEX
  8
cont
 10
287117
 20
6717285.86
  0
VERTEX
  8
cont
 10
287119
 20
6717285.98
  0
VERTEX
  8
cont
 10
287121
 20
6717286.26
  0
VERTEX
  8
cont
 10
287123
 20
6717286.52
  0
VERTEX
  8
cont
 10
287123.66
 20
6717287
  0
VERTEX
  8
cont
 10
287125
 20
6717287.9
  0
VERTEX
  8
cont
 10
287127
 20
6717288.66
  0
VERTEX
  8
cont
 10
287127.96
 20
6717289
  0
VERTEX
  8
cont
 10
287129
 20
6717289.28
  0
VERTEX
  8
cont
 10
287131
 20
6717289.62
  0
VERTEX
  8
cont
 10
287133
 20
6717289.8
  0
VERTEX
  8
cont
 10
287135
 20
6717289.9
  0
VERTEX
  8
cont
 10
287136.6
 20
6717291
  0
VERTEX
  8
cont
 10
287137
 20
6717291.2
  0
VERTEX
  8
cont
 10
287139
 20
6717291.5
  0
VERTEX
  8
cont
 10
287141
 20
6717291.12
  0
VERTEX
  8
cont
 10
287143
 20
6717292.12
  0
VERTEX
  8
cont
 10
287143.8
 20
6717293
  0
VERTEX
  8
cont
 10
287145
 20
6717293.44
  0
VERTEX
  8
cont
 10
287147
 20
6717293.38
  0
VERTEX
  8
cont
 10
287149
 20
6717293.36
  0
VERTEX
  8
cont
 10
287151
 20
6717293.36
  0
VERTEX
  8
cont
 10
287152
 20
6717292
  0
VERTEX
  8
cont
 10
287152
 20
6717290
  0
VERTEX
  8
cont
 10
287152.14
 20
6717287.84
  0
VERTEX
  8
cont
 10
287151.62
 20
6717286.36
  0
VERTEX
  8
cont
 10
287151.24
 20
6717284.74
  0
VERTEX
  8
cont
 10
287149.34
 20
6717284.64
  0
VERTEX
  8
cont
 10
287147.36
 20
6717284.62
  0
VERTEX
  8
cont
 10
287145.54
 20
6717284.44
  0
VERTEX
  8
cont
 10
287143.94
 20
6717284.04
  0
VERTEX
  8
cont
 10
287142.72
 20
6717283.26
  0
VERTEX
  8
cont
 10
287140.48
 20
6717283.5
  0
VERTEX
  8
cont
 10
287138.76
 20
6717283.22
  0
VERTEX
  8
cont
 10
287138.22
 20
6717281.76
  0
VERTEX
  8
cont
 10
287136.48
 20
6717281.5
  0
VERTEX
  8
cont
 10
287137
 20
6717279.6
  0
VERTEX
  8
cont
 10
287137.48
 20
6717278.5
  0
VERTEX
  8
cont
 10
287138.66
 20
6717275.32
  0
VERTEX
  8
cont
 10
287137.7
 20
6717274.28
  0
VERTEX
  8
cont
 10
287137.38
 20
6717272.6
  0
VERTEX
  8
cont
 10
287137.18
 20
6717270.8
  0
VERTEX
  8
cont
 10
287136.72
 20
6717269.26
  0
VERTEX
  8
cont
 10
287137
 20
6717268
  0
VERTEX
  8
cont
 10
287137.26
 20
6717266.72
  0
VERTEX
  8
cont
 10
287136.5
 20
6717265.48
  0
VERTEX
  8
cont
 10
287136.62
 20
6717263.36
  0
VERTEX
  8
cont
 10
287137
 20
6717262
  0
VERTEX
  8
cont
 10
287137.18
 20
6717260.8
  0
VERTEX
  8
cont
 10
287135.66
 20
6717260.32
  0
VERTEX
  8
cont
 10
287136.42
 20
6717257.56
  0
VERTEX
  8
cont
 10
287135.24
 20
6717256.74
  0
VERTEX
  8
cont
 10
287134.56
 20
6717255.42
  0
VERTEX
  8
cont
 10
287135
 20
6717254.28
  0
VERTEX
  8
cont
 10
287137
 20
6717252.04
  0
VERTEX
  8
cont
 10
287139
 20
6717251.4
  0
VERTEX
  8
cont
 10
287141
 20
6717250.22
  0
VERTEX
  8
cont
 10
287143
 20
6717249.52
  0
VERTEX
  8
cont
 10
287145
 20
6717248.22
  0
VERTEX
  8
cont
 10
287146
 20
6717245.98
  0
VERTEX
  8
cont
 10
287145.86
 20
6717244.12
  0
VERTEX
  8
cont
 10
287145.72
 20
6717242.26
  0
VERTEX
  8
cont
 10
287145.94
 20
6717240.04
  0
VERTEX
  8
cont
 10
287146
 20
6717238
  0
VERTEX
  8
cont
 10
287146
 20
6717236
  0
VERTEX
  8
cont
 10
287147
 20
6717234
  0
VERTEX
  8
cont
 10
287149
 20
6717232
  0
VERTEX
  8
cont
 10
287151
 20
6717232
  0
VERTEX
  8
cont
 10
287153
 20
6717229.92
  0
VERTEX
  8
cont
 10
287153.48
 20
6717228.5
  0
VERTEX
  8
cont
 10
287151.66
 20
6717228.32
  0
VERTEX
  8
cont
 10
287151.98
 20
6717226
  0
VERTEX
  8
cont
 10
287153
 20
6717223.64
  0
VERTEX
  8
cont
 10
287153.5
 20
6717223
  0
VERTEX
  8
cont
 10
287155
 20
6717222.02
  0
VERTEX
  8
cont
 10
287156.48
 20
6717221.5
  0
VERTEX
  8
cont
 10
287157
 20
6717221.34
  0
VERTEX
  8
cont
 10
287157.64
 20
6717221
  0
VERTEX
  8
cont
 10
287157.7
 20
6717220.28
  0
VERTEX
  8
cont
 10
287157.92
 20
6717219
  0
SEQEND
  0
POLYLINE
 66
1
  8
cont
  0
VERTEX
  8
cont
 10
287113
 20
6717273.9
  0
VERTEX
  8
cont
 10
287111.76
 20
6717275
  0
VERTEX
  8
cont
 10
287111.88
 20
6717276.1
  0
VERTEX
  8
cont
 10
287111.96
 20
6717277
  0
VERTEX
  8
cont
 10
287111.98
 20
6717278
  0
VERTEX
  8
cont
 10
287113.64
 20
6717278.34
  0
VERTEX
  8
cont
 10
287115.46
 20
6717278.52
  0
VERTEX
  8
cont
 10
287117.32
 20
6717278.66
  0
VERTEX
  8
cont
 10
287119.08
 20
6717278.9
  0
VERTEX
  8
cont
 10
287121.54
 20
6717278.44
  0
VERTEX
  8
cont
 10
287124.72
 20
6717277
  0
VERTEX
  8
cont
 10
287126.34
 20
6717275
  0
VERTEX
  8
cont
 10
287126.36
 20
6717273
  0
VERTEX
  8
cont
 10
287125
 20
6717271.62
  0
VERTEX
  8
cont
 10
287124.36
 20
6717271
  0
VERTEX
  8
cont
 10
287124.32
 20
6717269
  0
VERTEX
  8
cont
 10
287123
 20
6717267.96
  0
VERTEX
  8
cont
 10
287121
 20
6717269.98
  0
VERTEX
  8
cont
 10
287119
 20
6717270.26
  0
VERTEX
  8
cont
 10
287118.34
 20
6717271
  0
VERTEX
  8
cont
 10
287117
 20
6717272.16
  0
VERTEX
  8
cont
 10
287115.7
 20
6717272.28
  0
VERTEX
  8
cont
 10
287115
 20
6717272.3
  0
VERTEX
  8
cont
 10
287114.08
 20
6717273
  0
VERTEX
  8
cont
 10
287113
 20
6717273.9
  0
SEQEND
  0
POLYLINE
 66
1
  8
cont
  0
VERTEX
  8
cont
 10
287125
 20
6717236.74
  0
VERTEX
  8
cont
 10
287124.68
 20
6717237
  0
VERTEX
  8
cont
 10
287124.62
 20
6717237.36
  0
VERTEX
  8
cont
 10
287125
 20
6717237.5
  0
VERTEX
  8
cont
 10
287125.82
 20
6717237
  0
VERTEX
  8
cont
 10
287125.34
 20
6717236.64
  0
VERTEX
  8
cont
 10
287125
 20
6717236.74
  0
SEQEND
  0
POLYLINE
 66
1
  8
cont
  0
VERTEX
  8
cont
 10
287135
 20
6717228.1
  0
VERTEX
  8
cont
 10
287134.16
 20
6717229
  0
VERTEX
  8
cont
 10
287134.14
 20
6717229.84
  0
VERTEX
  8
cont
 10
287135
 20
6717230
  0
VERTEX
  8
cont
 10
287135.78
 20
6717230.2
  0
VERTEX
  8
cont
 10
287138
 20
6717230
  0
VERTEX
  8
cont
 10
287140
 20
6717229
  0
VERTEX
  8
cont
 10
287140.3
 20
6717227
  0
VERTEX
  8
cont
 10
287140
 20
6717225.98
  0
VERTEX
  8
cont
 10
287139
 20
6717225.68
  0
VERTEX
  8
cont
 10
287138.24
 20
6717225.74
  0
VERTEX
  8
cont
 10
287137
 20
6717225.88
  0
VERTEX
  8
cont
 10
287135.84
 20
6717227
  0
VERTEX
  8
cont
 10
287135
 20
6717228.1
  0
SEQEND
  0
POLYLINE
 66
1
  8
cont
  0
VERTEX
  8
cont
 10
286967
 20
6717407.56
  0
VERTEX
  8
cont
 10
286968.24
 20
6717407.74
  0
VERTEX
  8
cont
 10
286969
 20
6717407.66
  0
VERTEX
  8
cont
 10
286969.94
 20
6717408.04
  0
VERTEX
  8
cont
 10
286971
 20
6717408
  0
VERTEX
  8
cont
 10
286973
 20
6717407.26
  0
VERTEX
  8
cont
 10
286975
 20
6717405.4
  0
VERTEX
  8
cont
 10
286977
 20
6717404.4
  0
VERTEX
  8
cont
 10
286979
 20
6717404.18
  0
VERTEX
  8
cont
 10
286981
 20
6717403.78
  0
VERTEX
  8
cont
 10
286983
 20
6717403.36
  0
VERTEX
  8
cont
 10
286985
 20
6717403.54
  0
VERTEX
  8
cont
 10
286987
 20
6717404.14
  0
VERTEX
  8
cont
 10
286988.4
 20
6717405
  0
VERTEX
  8
cont
 10
286989
 20
6717405.54
  0
VERTEX
  8
cont
 10
286991
 20
6717406.86
  0
VERTEX
  8
cont
 10
286991.26
 20
6717407
  0
VERTEX
  8
cont
 10
286993
 20
6717408.7
  0
VERTEX
  8
cont
 10
286993.38
 20
6717409
  0
VERTEX
  8
cont
 10
286993.76
 20
6717411
  0
VERTEX
  8
cont
 10
286995
 20
6717411.62
  0
VERTEX
  8
cont
 10
286997
 20
6717412.68
  0
VERTEX
  8
cont
 10
286997.58
 20
6717413
  0
VERTEX
  8
cont
 10
286999
 20
6717414.04
  0
VERTEX
  8
cont
 10
287001
 20
6717414.12
  0
VERTEX
  8
cont
 10
287001.86
 20
6717415
  0
VERTEX
  8
cont
 10
287000.36
 20
6717417
  0
VERTEX
  8
cont
 10
286998.24
 20
6717417.74
  0
VERTEX
  8
cont
 10
286995.6
 20
6717419
  0
VERTEX
  8
cont
 10
286993.76
 20
6717420.22
  0
VERTEX
  8
cont
 10
286992.3
 20
6717421
  0
VERTEX
  8
cont
 10
286989.76
 20
6717423
  0
VERTEX
  8
cont
 10
286990.12
 20
6717425
  0
VERTEX
  8
cont
 10
286990.3
 20
6717427
  0
VERTEX
  8
cont
 10
286987.38
 20
6717429
  0
VERTEX
  8
cont
 10
286986.16
 20
6717429.82
  0
VERTEX
  8
cont
 10
286983.66
 20
6717431
  0
VERTEX
  8
cont
 10
286982.3
 20
6717431.68
  0
VERTEX
  8
cont
 10
286980.08
 20
6717433
  0
VERTEX
  8
cont
 10
286978.22
 20
6717433.76
  0
VERTEX
  8
cont
 10
286975.36
 20
6717434.62
  0
VERTEX
  8
cont
 10
286973.94
 20
6717434.04
  0
VERTEX
  8
cont
 10
286973
 20
6717434.18
  0
VERTEX
  8
cont
 10
286971.94
 20
6717434.04
  0
VERTEX
  8
cont
 10
286971
 20
6717434.2
  0
VERTEX
  8
cont
 10
286969.78
 20
6717434.2
  0
VERTEX
  8
cont
 10
286969
 20
6717434.1
  0
VERTEX
  8
cont
 10
286967.24
 20
6717434.74
  0
VERTEX
  8
cont
 10
286967
 20
6717434.7
  0
SEQEND
  0
POLYLINE
 66
1
  8
cont
  0
VERTEX
  8
cont
 10
286975
 20
6717462.06
  0
VERTEX
  8
cont
 10
286974.38
 20
6717463
  0
VERTEX
  8
cont
 10
286974.14
 20
6717463.84
  0
VERTEX
  8
cont
 10
286973.84
 20
6717465
  0
VERTEX
  8
cont
 10
286974.12
 20
6717465.86
  0
VERTEX
  8
cont
 10
286974.4
 20
6717467.58
  0
VERTEX
  8
cont
 10
286976
 20
6717467.98
  0
VERTEX
  8
cont
 10
286978
 20
6717467
  0
VERTEX
  8
cont
 10
286978.24
 20
6717465
  0
VERTEX
  8
cont
 10
286978.2
 20
6717463
  0
VERTEX
  8
cont
 10
286978.12
 20
6717461.86
  0
VERTEX
  8
cont
 10
286977.72
 20
6717461
  0
VERTEX
  8
cont
 10
286977.64
 20
6717460.34
  0
VERTEX
  8
cont
 10
286977
 20
6717460.3
  0
VERTEX
  8
cont
 10
286976.16
 20
6717461
  0
VERTEX
  8
cont
 10
286975
 20
6717462.06
  0
SEQEND
  0
POLYLINE
 66
1
  8
cont
  0
VERTEX
  8
cont
 10
286977
 20
6717446.88
  0
VERTEX
  8
cont
 10
286976.86
 20
6717447
  0
VERTEX
  8
cont
 10
286976.84
 20
6717447.14
  0
VERTEX
  8
cont
 10
286976.76
 20
6717449
  0
VERTEX
  8
cont
 10
286976.26
 20
6717449.72
  0
VERTEX
  8
cont
 10
286976.7
 20
6717451.28
  0
VERTEX
  8
cont
 10
286978.08
 20
6717451.9
  0
VERTEX
  8
cont
 10
286979.82
 20
6717452.16
  0
VERTEX
  8
cont
 10
286981.86
 20
6717452.12
  0
VERTEX
  8
cont
 10
286984.74
 20
6717451.24
  0
VERTEX
  8
cont
 10
286986.32
 20
6717451.66
  0
VERTEX
  8
cont
 10
286987.22
 20
6717452.76
  0
VERTEX
  8
cont
 10
286987.76
 20
6717454.22
  0
VERTEX
  8
cont
 10
286989.46
 20
6717454.52
  0
VERTEX
  8
cont
 10
286989.28
 20
6717456.7
  0
VERTEX
  8
cont
 10
286989
 20
6717458
  0
VERTEX
  8
cont
 10
286988.9
 20
6717459.08
  0
VERTEX
  8
cont
 10
286990.1
 20
6717459.88
  0
VERTEX
  8
cont
 10
286990.02
 20
6717461.96
  0
VERTEX
  8
cont
 10
286990.58
 20
6717463.4
  0
VERTEX
  8
cont
 10
286990.72
 20
6717465.26
  0
VERTEX
  8
cont
 10
286991.88
 20
6717466.1
  0
VERTEX
  8
cont
 10
286993.32
 20
6717466.66
  0
VERTEX
  8
cont
 10
286993.94
 20
6717468.04
  0
VERTEX
  8
cont
 10
286994.8
 20
6717469.18
  0
VERTEX
  8
cont
 10
286995.7
 20
6717470.28
  0
VERTEX
  8
cont
 10
286995.76
 20
6717472.22
  0
VERTEX
  8
cont
 10
286995.5
 20
6717474.48
  0
VERTEX
  8
cont
 10
286996.1
 20
6717475.88
  0
VERTEX
  8
cont
 10
286996.48
 20
6717477.5
  0
VERTEX
  8
cont
 10
286996.44
 20
6717479.54
  0
VERTEX
  8
cont
 10
286996.14
 20
6717481.84
  0
VERTEX
  8
cont
 10
286995
 20
6717484.32
  0
VERTEX
  8
cont
 10
286993
 20
6717485.06
  0
VERTEX
  8
cont
 10
286992.86
 20
6717485
  0
VERTEX
  8
cont
 10
286991
 20
6717483.76
  0
VERTEX
  8
cont
 10
286989
 20
6717484
  0
VERTEX
  8
cont
 10
286987
 20
6717483.9
  0
VERTEX
  8
cont
 10
286985.56
 20
6717486.42
  0
VERTEX
  8
cont
 10
286985.7
 20
6717488.28
  0
VERTEX
  8
cont
 10
286986.78
 20
6717489.2
  0
VERTEX
  8
cont
 10
286987.2
 20
6717490.78
  0
VERTEX
  8
cont
 10
286987.48
 20
6717492.5
  0
VERTEX
  8
cont
 10
286988.16
 20
6717493.82
  0
VERTEX
  8
cont
 10
286988.72
 20
6717495.26
  0
VERTEX
  8
cont
 10
286990.02
 20
6717495.96
  0
VERTEX
  8
cont
 10
286991.28
 20
6717496.7
  0
VERTEX
  8
cont
 10
286992.62
 20
6717497.36
  0
VERTEX
  8
cont
 10
286993.76
 20
6717498.22
  0
VERTEX
  8
cont
 10
286994.36
 20
6717499.62
  0
VERTEX
  8
cont
 10
286995.16
 20
6717500.82
  0
VERTEX
  8
cont
 10
286995.84
 20
6717502.14
  0
VERTEX
  8
cont
 10
286996.8
 20
6717503.18
  0
VERTEX
  8
cont
 10
286997.78
 20
6717504.2
  0
VERTEX
  8
cont
 10
286999.2
 20
6717504.78
  0
VERTEX
  8
cont
 10
287000.52
 20
6717505.46
  0
VERTEX
  8
cont
 10
287002.24
 20
6717505.74
  0
VERTEX
  8
cont
 10
287004.1
 20
6717505.88
  0
VERTEX
  8
cont
 10
287006.06
 20
6717505.92
  0
VERTEX
  8
cont
 10
287008.06
 20
6717505.92
  0
VERTEX
  8
cont
 10
287009.2
 20
6717506.78
  0
VERTEX
  8
cont
 10
287010.04
 20
6717507.94
  0
VERTEX
  8
cont
 10
287010.8
 20
6717509.18
  0
VERTEX
  8
cont
 10
287010.44
 20
6717511.54
  0
VERTEX
  8
cont
 10
287011.54
 20
6717512.44
  0
VERTEX
  8
cont
 10
287012.62
 20
6717513.36
  0
VERTEX
  8
cont
 10
287013.18
 20
6717514.8
  0
VERTEX
  8
cont
 10
287014.26
 20
6717515.72
  0
VERTEX
  8
cont
 10
287015.4
 20
6717516.58
  0
VERTEX
  8
cont
 10
287016.3
 20
6717517.68
  0
VERTEX
  8
cont
 10
287017.48
 20
6717518.5
  0
VERTEX
  8
cont
 10
287018.2
 20
6717519.78
  0
VERTEX
  8
cont
 10
287017.56
 20
6717522.42
  0
VERTEX
  8
cont
 10
287017.98
 20
6717524
  0
VERTEX
  8
cont
 10
287018.58
 20
6717525.4
  0
VERTEX
  8
cont
 10
287019.42
 20
6717526.56
  0
VERTEX
  8
cont
 10
287019.78
 20
6717528.2
  0
VERTEX
  8
cont
 10
287020.1
 20
6717529
  0
VERTEX
  8
cont
 10
287020.26
 20
6717529.72
  0
VERTEX
  8
cont
 10
287020.54
 20
6717531
  0
VERTEX
  8
cont
 10
287020.48
 20
6717531.5
  0
VERTEX
  8
cont
 10
287019.76
 20
6717533
  0
VERTEX
  8
cont
 10
287020.04
 20
6717533.94
  0
VERTEX
  8
cont
 10
287020.4
 20
6717535
  0
SEQEND
  0
POLYLINE
 66
1
  8
cont
  0
VERTEX
  8
cont
 10
286977
 20
6717446.88
  0
VERTEX
  8
cont
 10
286977.62
 20
6717446.36
  0
VERTEX
  8
cont
 10
286979
 20
6717445.52
  0
VERTEX
  8
cont
 10
286979.66
 20
6717445
  0
VERTEX
  8
cont
 10
286981
 20
6717444.1
  0
VERTEX
  8
cont
 10
286983
 20
6717443.44
  0
VERTEX
  8
cont
 10
286985
 20
6717443.1
  0
VERTEX
  8
cont
 10
286987
 20
6717442.28
  0
VERTEX
  8
cont
 10
286989
 20
6717441.5
  0
VERTEX
  8
cont
 10
286991
 20
6717441.3
  0
VERTEX
  8
cont
 10
286993
 20
6717439.66
  0
VERTEX
  8
cont
 10
286995
 20
6717440
  0
VERTEX
  8
cont
 10
286995.76
 20
6717438.22
  0
VERTEX
  8
cont
 10
286997
 20
6717436.5
  0
VERTEX
  8
cont
 10
286999
 20
6717435.42
  0
VERTEX
  8
cont
 10
286999.32
 20
6717434.66
  0
VERTEX
  8
cont
 10
286998.62
 20
6717433.36
  0
VERTEX
  8
cont
 10
286999
 20
6717431.92
  0
VERTEX
  8
cont
 10
286999.42
 20
6717430.56
  0
VERTEX
  8
cont
 10
287001
 20
6717427.84
  0
VERTEX
  8
cont
 10
287003
 20
6717426.74
  0
VERTEX
  8
cont
 10
287005
 20
6717426.32
  0
VERTEX
  8
cont
 10
287007
 20
6717426.02
  0
VERTEX
  8
cont
 10
287009
 20
6717425.34
  0
VERTEX
  8
cont
 10
287011
 20
6717424.44
  0
VERTEX
  8
cont
 10
287013
 20
6717423.66
  0
VERTEX
  8
cont
 10
287015
 20
6717423.38
  0
VERTEX
  8
cont
 10
287017
 20
6717421.5
  0
VERTEX
  8
cont
 10
287019
 20
6717419.52
  0
VERTEX
  8
cont
 10
287021
 20
6717418.72
  0
VERTEX
  8
cont
 10
287023
 20
6717417.12
  0
VERTEX
  8
cont
 10
287025
 20
6717415.52
  0
VERTEX
  8
cont
 10
287027
 20
6717414.4
  0
VERTEX
  8
cont
 10
287029
 20
6717413.08
  0
VERTEX
  8
cont
 10
287030.06
 20
6717411.92
  0
VERTEX
  8
cont
 10
287031
 20
6717410.42
  0
VERTEX
  8
cont
 10
287033
 20
6717409.28
  0
VERTEX
  8
cont
 10
287033.56
 20
6717408.42
  0
VERTEX
  8
cont
 10
287035
 20
6717406.1
  0
VERTEX
  8
cont
 10
287037
 20
6717404.06
  0
VERTEX
  8
cont
 10
287039
 20
6717401.88
  0
VERTEX
  8
cont
 10
287041
 20
6717401.3
  0
VERTEX
  8
cont
 10
287043
 20
6717399.6
  0
VERTEX
  8
cont
 10
287045
 20
6717398.32
  0
VERTEX
  8
cont
 10
287047
 20
6717398.84
  0
VERTEX
  8
cont
 10
287049
 20
6717397.98
  0
VERTEX
  8
cont
 10
287051
 20
6717397.68
  0
VERTEX
  8
cont
 10
287053
 20
6717397.1
  0
VERTEX
  8
cont
 10
287055
 20
6717396.8
  0
VERTEX
  8
cont
 10
287057
 20
6717396.4
  0
VERTEX
  8
cont
 10
287059
 20
6717394.84
  0
VERTEX
  8
cont
 10
287059.8
 20
6717395
  0
VERTEX
  8
cont
 10
287061
 20
6717395.52
  0
VERTEX
  8
cont
 10
287063
 20
6717395.42
  0
VERTEX
  8
cont
 10
287065
 20
6717394.28
  0
VERTEX
  8
cont
 10
287067
 20
6717392
  0
VERTEX
  8
cont
 10
287068
 20
6717390
  0
VERTEX
  8
cont
 10
287069
 20
6717388.86
  0
VERTEX
  8
cont
 10
287071
 20
6717386.74
  0
VERTEX
  8
cont
 10
287073
 20
6717386.28
  0
VERTEX
  8
cont
 10
287075
 20
6717385.84
  0
VERTEX
  8
cont
 10
287077
 20
6717384.9
  0
VERTEX
  8
cont
 10
287079
 20
6717384.46
  0
VERTEX
  8
cont
 10
287081
 20
6717384.34
  0
VERTEX
  8
cont
 10
287083
 20
6717384.06
  0
VERTEX
  8
cont
 10
287085
 20
6717383.48
  0
VERTEX
  8
cont
 10
287087
 20
6717383.1
  0
VERTEX
  8
cont
 10
287089
 20
6717382.42
  0
VERTEX
  8
cont
 10
287090.28
 20
6717383
  0
VERTEX
  8
cont
 10
287091
 20
6717383.16
  0
VERTEX
  8
cont
 10
287093
 20
6717384
  0
VERTEX
  8
cont
 10
287095
 20
6717383.68
  0
VERTEX
  8
cont
 10
287097
 20
6717383.46
  0
VERTEX
  8
cont
 10
287099
 20
6717383.16
  0
VERTEX
  8
cont
 10
287101
 20
6717383.52
  0
VERTEX
  8
cont
 10
287103
 20
6717381.86
  0
VERTEX
  8
cont
 10
287105
 20
6717381.2
  0
VERTEX
  8
cont
 10
287106
 20
6717380
  0
VERTEX
  8
cont
 10
287107
 20
6717378.66
  0
VERTEX
  8
cont
 10
287109
 20
6717377.96
  0
VERTEX
  8
cont
 10
287110.4
 20
6717375.58
  0
VERTEX
  8
cont
 10
287111
 20
6717374.58
  0
VERTEX
  8
cont
 10
287113
 20
6717374.1
  0
VERTEX
  8
cont
 10
287115
 20
6717372.42
  0
VERTEX
  8
cont
 10
287117
 20
6717371.5
  0
VERTEX
  8
cont
 10
287119
 20
6717370.44
  0
VERTEX
  8
cont
 10
287120.38
 20
6717367.6
  0
VERTEX
  8
cont
 10
287120.36
 20
6717365.62
  0
VERTEX
  8
cont
 10
287121
 20
6717364
  0
VERTEX
  8
cont
 10
287121.84
 20
6717362.14
  0
VERTEX
  8
cont
 10
287122
 20
6717360
  0
VERTEX
  8
cont
 10
287123
 20
6717358
  0
VERTEX
  8
cont
 10
287124
 20
6717356
  0
VERTEX
  8
cont
 10
287125
 20
6717354
  0
VERTEX
  8
cont
 10
287127
 20
6717352
  0
VERTEX
  8
cont
 10
287127.42
 20
6717350.56
  0
VERTEX
  8
cont
 10
287126.34
 20
6717349.64
  0
VERTEX
  8
cont
 10
287127
 20
6717348.46
  0
VERTEX
  8
cont
 10
287129
 20
6717346.86
  0
VERTEX
  8
cont
 10
287131
 20
6717346.6
  0
VERTEX
  8
cont
 10
287133
 20
6717345.78
  0
VERTEX
  8
cont
 10
287135
 20
6717345.16
  0
VERTEX
  8
cont
 10
287137
 20
6717344.74
  0
VERTEX
  8
cont
 10
287139
 20
6717344.9
  0
VERTEX
  8
cont
 10
287141
 20
6717344.66
  0
VERTEX
  8
cont
 10
287143
 20
6717344.26
  0
VERTEX
  8
cont
 10
287145
 20
6717344.68
  0
VERTEX
  8
cont
 10
287147
 20
6717344.78
  0
VERTEX
  8
cont
 10
287149
 20
6717344.28
  0
VERTEX
  8
cont
 10
287151
 20
6717343.78
  0
VERTEX
  8
cont
 10
287153
 20
6717342.28
  0
VERTEX
  8
cont
 10
287155
 20
6717342.36
  0
VERTEX
  8
cont
 10
287157
 20
6717342.26
  0
VERTEX
  8
cont
 10
287159
 20
6717341.98
  0
VERTEX
  8
cont
 10
287161
 20
6717340.52
  0
VERTEX
  8
cont
 10
287161.96
 20
6717341
  0
VERTEX
  8
cont
 10
287163
 20
6717341.44
  0
VERTEX
  8
cont
 10
287165
 20
6717341.34
  0
VERTEX
  8
cont
 10
287167
 20
6717339.96
  0
VERTEX
  8
cont
 10
287169
 20
6717339.24
  0
VERTEX
  8
cont
 10
287171
 20
6717338.64
  0
VERTEX
  8
cont
 10
287173
 20
6717338.18
  0
VERTEX
  8
cont
 10
287175
 20
6717336.82
  0
VERTEX
  8
cont
 10
287175.26
 20
6717337
  0
VERTEX
  8
cont
 10
287177
 20
6717337.64
  0
VERTEX
  8
cont
 10
287179
 20
6717337.54
  0
VERTEX
  8
cont
 10
287181
 20
6717336.6
  0
VERTEX
  8
cont
 10
287183
 20
6717336
  0
VERTEX
  8
cont
 10
287185
 20
6717334.52
  0
VERTEX
  8
cont
 10
287187
 20
6717332.72
  0
VERTEX
  8
cont
 10
287189
 20
6717332.48
  0
VERTEX
  8
cont
 10
287191
 20
6717332.32
  0
VERTEX
  8
cont
 10
287192.34
 20
6717333
  0
VERTEX
  8
cont
 10
287193
 20
6717333.26
  0
VERTEX
  8
cont
 10
287195
 20
6717333.22
  0
VERTEX
  8
cont
 10
287197
 20
6717333.3
  0
VERTEX
  8
cont
 10
287199
 20
6717331.82
  0
VERTEX
  8
cont
 10
287199.7
 20
6717330.28
  0
VERTEX
  8
cont
 10
287199.96
 20
6717328.02
  0
VERTEX
  8
cont
 10
287200
 20
6717325.98
  0
VERTEX
  8
cont
 10
287201
 20
6717323.72
  0
VERTEX
  8
cont
 10
287201.46
 20
6717322.52
  0
VERTEX
  8
cont
 10
287201.92
 20
6717320.06
  0
VERTEX
  8
cont
 10
287203
 20
6717318.32
  0
VERTEX
  8
cont
 10
287203.86
 20
6717316.12
  0
VERTEX
  8
cont
 10
287203.18
 20
6717314.8
  0
VERTEX
  8
cont
 10
287205
 20
6717312.28
  0
VERTEX
  8
cont
 10
287207
 20
6717312.16
  0
VERTEX
  8
cont
 10
287209
 20
6717311.14
  0
VERTEX
  8
cont
 10
287211
 20
6717310.46
  0
VERTEX
  8
cont
 10
287213
 20
6717310.34
  0
VERTEX
  8
cont
 10
287215
 20
6717310.24
  0
VERTEX
  8
cont
 10
287217
 20
6717309.76
  0
VERTEX
  8
cont
 10
287219
 20
6717310.34
  0
VERTEX
  8
cont
 10
287221
 20
6717310.56
  0
VERTEX
  8
cont
 10
287222.58
 20
6717311
  0
VERTEX
  8
cont
 10
287223
 20
6717311.1
  0
VERTEX
  8
cont
 10
287225
 20
6717312.5
  0
VERTEX
  8
cont
 10
287227
 20
6717312.76
  0
VERTEX
  8
cont
 10
287227.34
 20
6717313
  0
VERTEX
  8
cont
 10
287228.46
 20
6717315
  0
VERTEX
  8
cont
 10
287229
 20
6717315.28
  0
VERTEX
  8
cont
 10
287231
 20
6717315.54
  0
VERTEX
  8
cont
 10
287232.04
 20
6717317
  0
VERTEX
  8
cont
 10
287233
 20
6717317.88
  0
VERTEX
  8
cont
 10
287233.76
 20
6717319
  0
VERTEX
  8
cont
 10
287233.78
 20
6717321
  0
VERTEX
  8
cont
 10
287233.92
 20
6717323
  0
VERTEX
  8
cont
 10
287234
 20
6717325
  0
VERTEX
  8
cont
 10
287233.74
 20
6717327
  0
VERTEX
  8
cont
 10
287234.04
 20
6717329
  0
VERTEX
  8
cont
 10
287235
 20
6717330
  0
VERTEX
  8
cont
 10
287236
 20
6717331
  0
VERTEX
  8
cont
 10
287237
 20
6717332
  0
VERTEX
  8
cont
 10
287239
 20
6717332
  0
VERTEX
  8
cont
 10
287240
 20
6717333
  0
VERTEX
  8
cont
 10
287241
 20
6717334
  0
VERTEX
  8
cont
 10
287243
 20
6717334.06
  0
VERTEX
  8
cont
 10
287243.88
 20
6717335
  0
VERTEX
  8
cont
 10
287244
 20
6717337
  0
VERTEX
  8
cont
 10
287245
 20
6717338
  0
VERTEX
  8
cont
 10
287247
 20
6717338
  0
VERTEX
  8
cont
 10
287248
 20
6717339
  0
VERTEX
  8
cont
 10
287249
 20
6717339.76
  0
VERTEX
  8
cont
 10
287251
 20
6717340
  0
VERTEX
  8
cont
 10
287253
 20
6717339.84
  0
VERTEX
  8
cont
 10
287255
 20
6717339.96
  0
VERTEX
  8
cont
 10
287257
 20
6717339.78
  0
VERTEX
  8
cont
 10
287259
 20
6717339.7
  0
VERTEX
  8
cont
 10
287261
 20
6717338
  0
VERTEX
  8
cont
 10
287263
 20
6717336
  0
VERTEX
  8
cont
 10
287265
 20
6717334.04
  0
VERTEX
  8
cont
 10
287267
 20
6717334
  0
VERTEX
  8
cont
 10
287269
 20
6717334
  0
VERTEX
  8
cont
 10
287271
 20
6717334
  0
VERTEX
  8
cont
 10
287272
 20
6717335
  0
VERTEX
  8
cont
 10
287273
 20
6717335.82
  0
VERTEX
  8
cont
 10
287273.78
 20
6717334.2
  0
VERTEX
  8
cont
 10
287274
 20
6717332
  0
VERTEX
  8
cont
 10
287275
 20
6717330.5
  0
VERTEX
  8
cont
 10
287276
 20
6717331
  0
VERTEX
  8
cont
 10
287277
 20
6717332
  0
VERTEX
  8
cont
 10
287279
 20
6717332
  0
VERTEX
  8
cont
 10
287281
 20
6717332.24
  0
VERTEX
  8
cont
 10
287282
 20
6717332
  0
VERTEX
  8
cont
 10
287282
 20
6717333
  0
VERTEX
  8
cont
 10
287282.24
 20
6717333.74
  0
VERTEX
  8
cont
 10
287283
 20
6717334
  0
VERTEX
  8
cont
 10
287284
 20
6717334
  0
VERTEX
  8
cont
 10
287285
 20
6717333.72
  0
SEQEND
  0
POLYLINE
 66
1
  8
cont
  0
VERTEX
  8
cont
 10
287087
 20
6717313.96
  0
VERTEX
  8
cont
 10
287086
 20
6717315
  0
VERTEX
  8
cont
 10
287086.08
 20
6717315.9
  0
VERTEX
  8
cont
 10
287086.26
 20
6717317
  0
VERTEX
  8
cont
 10
287086.32
 20
6717317.66
  0
VERTEX
  8
cont
 10
287086.88
 20
6717319.1
  0
VERTEX
  8
cont
 10
287088.64
 20
6717319.34
  0
VERTEX
  8
cont
 10
287090.66
 20
6717319.32
  0
VERTEX
  8
cont
 10
287091.92
 20
6717319
  0
VERTEX
  8
cont
 10
287093.26
 20
6717318.72
  0
VERTEX
  8
cont
 10
287096.52
 20
6717317
  0
VERTEX
  8
cont
 10
287098.68
 20
6717315
  0
VERTEX
  8
cont
 10
287099.3
 20
6717313
  0
VERTEX
  8
cont
 10
287099
 20
6717312.56
  0
VERTEX
  8
cont
 10
287098.58
 20
6717311
  0
VERTEX
  8
cont
 10
287097
 20
6717309.74
  0
VERTEX
  8
cont
 10
287095
 20
6717309.74
  0
VERTEX
  8
cont
 10
287093
 20
6717309.84
  0
VERTEX
  8
cont
 10
287091
 20
6717309.52
  0
VERTEX
  8
cont
 10
287090.36
 20
6717309.62
  0
VERTEX
  8
cont
 10
287089
 20
6717310.14
  0
VERTEX
  8
cont
 10
287087.76
 20
6717311
  0
VERTEX
  8
cont
 10
287088.12
 20
6717311.86
  0
VERTEX
  8
cont
 10
287087.92
 20
6717313
  0
VERTEX
  8
cont
 10
287087
 20
6717313.96
  0
SEQEND
  0
POLYLINE
 66
1
  8
cont
  0
VERTEX
  8
cont
 10
287109
 20
6717304.08
  0
VERTEX
  8
cont
 10
287108.04
 20
6717305
  0
VERTEX
  8
cont
 10
287107.7
 20
6717306.28
  0
VERTEX
  8
cont
 10
287107.56
 20
6717307
  0
VERTEX
  8
cont
 10
287107.46
 20
6717308.52
  0
VERTEX
  8
cont
 10
287108.64
 20
6717309.34
  0
VERTEX
  8
cont
 10
287110.6
 20
6717309.38
  0
VERTEX
  8
cont
 10
287111.76
 20
6717309
  0
VERTEX
  8
cont
 10
287113.48
 20
6717308.5
  0
VERTEX
  8
cont
 10
287116.88
 20
6717307
  0
VERTEX
  8
cont
 10
287117.06
 20
6717306.92
  0
VERTEX
  8
cont
 10
287118.04
 20
6717307.94
  0
VERTEX
  8
cont
 10
287119.56
 20
6717308.42
  0
VERTEX
  8
cont
 10
287122.46
 20
6717307.52
  0
VERTEX
  8
cont
 10
287124.56
 20
6717307
  0
VERTEX
  8
cont
 10
287125.06
 20
6717306.92
  0
VERTEX
  8
cont
 10
287126.44
 20
6717307.54
  0
VERTEX
  8
cont
 10
287127.86
 20
6717307
  0
VERTEX
  8
cont
 10
287130.9
 20
6717305
  0
VERTEX
  8
cont
 10
287131.12
 20
6717304.86
  0
VERTEX
  8
cont
 10
287134.86
 20
6717303
  0
VERTEX
  8
cont
 10
287135.56
 20
6717301
  0
VERTEX
  8
cont
 10
287136.58
 20
6717299
  0
VERTEX
  8
cont
 10
287135
 20
6717297.74
  0
VERTEX
  8
cont
 10
287133
 20
6717297.7
  0
VERTEX
  8
cont
 10
287131
 20
6717297.52
  0
VERTEX
  8
cont
 10
287130.06
 20
6717297
  0
VERTEX
  8
cont
 10
287129
 20
6717296.04
  0
VERTEX
  8
cont
 10
287127
 20
6717295.58
  0
VERTEX
  8
cont
 10
287125
 20
6717295.82
  0
VERTEX
  8
cont
 10
287123
 20
6717296.12
  0
VERTEX
  8
cont
 10
287121
 20
6717296.5
  0
VERTEX
  8
cont
 10
287119
 20
6717297.78
  0
VERTEX
  8
cont
 10
287117
 20
6717298.26
  0
VERTEX
  8
cont
 10
287115
 20
6717299.92
  0
VERTEX
  8
cont
 10
287114.04
 20
6717301
  0
VERTEX
  8
cont
 10
287113
 20
6717301.8
  0
VERTEX
  8
cont
 10
287111.76
 20
6717302.22
  0
VERTEX
  8
cont
 10
287111
 20
6717302.46
  0
VERTEX
  8
cont
 10
287110.26
 20
6717303
  0
VERTEX
  8
cont
 10
287109
 20
6717304.08
  0
SEQEND
  0
POLYLINE
 66
1
  8
cont
  0
VERTEX
  8
cont
 10
287147
 20
6717323.9
  0
VERTEX
  8
cont
 10
287146.2
 20
6717325
  0
VERTEX
  8
cont
 10
287146.28
 20
6717325.7
  0
VERTEX
  8
cont
 10
287145.94
 20
6717327
  0
VERTEX
  8
cont
 10
287145.64
 20
6717328.34
  0
VERTEX
  8
cont
 10
287147.24
 20
6717328.74
  0
VERTEX
  8
cont
 10
287147.88
 20
6717330.1
  0
VERTEX
  8
cont
 10
287149.64
 20
6717330.34
  0
VERTEX
  8
cont
 10
287152.58
 20
6717329.4
  0
VERTEX
  8
cont
 10
287153.9
 20
6717329
  0
VERTEX
  8
cont
 10
287155.2
 20
6717328.78
  0
VERTEX
  8
cont
 10
287157.46
 20
6717328.52
  0
VERTEX
  8
cont
 10
287160.38
 20
6717327
  0
VERTEX
  8
cont
 10
287161.2
 20
6717325
  0
VERTEX
  8
cont
 10
287162.92
 20
6717323
  0
VERTEX
  8
cont
 10
287163.12
 20
6717322.86
  0
VERTEX
  8
cont
 10
287166.54
 20
6717321
  0
VERTEX
  8
cont
 10
287166.36
 20
6717319
  0
VERTEX
  8
cont
 10
287165
 20
6717317.7
  0
VERTEX
  8
cont
 10
287163
 20
6717317.62
  0
VERTEX
  8
cont
 10
287161
 20
6717318.26
  0
VERTEX
  8
cont
 10
287159
 20
6717318.2
  0
VERTEX
  8
cont
 10
287157
 20
6717318.46
  0
VERTEX
  8
cont
 10
287155
 20
6717318.76
  0
VERTEX
  8
cont
 10
287153
 20
6717319.92
  0
VERTEX
  8
cont
 10
287151
 20
6717320.22
  0
VERTEX
  8
cont
 10
287149.72
 20
6717320.26
  0
VERTEX
  8
cont
 10
287149
 20
6717320.32
  0
VERTEX
  8
cont
 10
287147.9
 20
6717321
  0
VERTEX
  8
cont
 10
287147.82
 20
6717322.16
  0
VERTEX
  8
cont
 10
287147.66
 20
6717323
  0
VERTEX
  8
cont
 10
287147
 20
6717323.9
  0
SEQEND
  0
POLYLINE
 66
1
  8
cont
  0
VERTEX
  8
cont
 10
287155
 20
6717274
  0
VERTEX
  8
cont
 10
287154.76
 20
6717275
  0
VERTEX
  8
cont
 10
287154.8
 20
6717275.18
  0
VERTEX
  8
cont
 10
287154.32
 20
6717277
  0
VERTEX
  8
cont
 10
287154.36
 20
6717277.62
  0
VERTEX
  8
cont
 10
287155.92
 20
6717278.06
  0
VERTEX
  8
cont
 10
287156.58
 20
6717279.4
  0
VERTEX
  8
cont
 10
287157.76
 20
6717280.22
  0
VERTEX
  8
cont
 10
287159.16
 20
6717280.82
  0
VERTEX
  8
cont
 10
287161.14
 20
6717280.84
  0
VERTEX
  8
cont
 10
287162.56
 20
6717281.42
  0
VERTEX
  8
cont
 10
287164.02
 20
6717281.96
  0
VERTEX
  8
cont
 10
287165.52
 20
6717282.46
  0
VERTEX
  8
cont
 10
287167.56
 20
6717282.42
  0
VERTEX
  8
cont
 10
287169.1
 20
6717282.88
  0
VERTEX
  8
cont
 10
287170.9
 20
6717283.08
  0
VERTEX
  8
cont
 10
287172.76
 20
6717283.22
  0
VERTEX
  8
cont
 10
287174.74
 20
6717283.24
  0
VERTEX
  8
cont
 10
287176.88
 20
6717283.1
  0
VERTEX
  8
cont
 10
287177.26
 20
6717283
  0
VERTEX
  8
cont
 10
287179.84
 20
6717282.14
  0
VERTEX
  8
cont
 10
287182.24
 20
6717281.74
  0
VERTEX
  8
cont
 10
287184.34
 20
6717281.64
  0
VERTEX
  8
cont
 10
287186.74
 20
6717281.24
  0
VERTEX
  8
cont
 10
287187.74
 20
6717281
  0
VERTEX
  8
cont
 10
287190.66
 20
6717279.32
  0
VERTEX
  8
cont
 10
287191.3
 20
6717279
  0
VERTEX
  8
cont
 10
287192.6
 20
6717277
  0
VERTEX
  8
cont
 10
287193.72
 20
6717276.26
  0
VERTEX
  8
cont
 10
287196.26
 20
6717275
  0
VERTEX
  8
cont
 10
287196.08
 20
6717273
  0
VERTEX
  8
cont
 10
287196.36
 20
6717271
  0
VERTEX
  8
cont
 10
287197.64
 20
6717269
  0
VERTEX
  8
cont
 10
287198.08
 20
6717267
  0
VERTEX
  8
cont
 10
287198.42
 20
6717265
  0
VERTEX
  8
cont
 10
287199.7
 20
6717264.28
  0
VERTEX
  8
cont
 10
287200.08
 20
6717265.9
  0
VERTEX
  8
cont
 10
287201.46
 20
6717266.52
  0
VERTEX
  8
cont
 10
287201.86
 20
6717268.12
  0
VERTEX
  8
cont
 10
287203.26
 20
6717268.72
  0
VERTEX
  8
cont
 10
287203.46
 20
6717270.52
  0
VERTEX
  8
cont
 10
287204.42
 20
6717271.56
  0
VERTEX
  8
cont
 10
287205.56
 20
6717272.42
  0
VERTEX
  8
cont
 10
287206.68
 20
6717273.3
  0
VERTEX
  8
cont
 10
287207.88
 20
6717274.1
  0
VERTEX
  8
cont
 10
287209.5
 20
6717274.48
  0
VERTEX
  8
cont
 10
287210.1
 20
6717275.88
  0
VERTEX
  8
cont
 10
287211.98
 20
6717276
  0
VERTEX
  8
cont
 10
287212.84
 20
6717277.14
  0
VERTEX
  8
cont
 10
287214.78
 20
6717277.2
  0
VERTEX
  8
cont
 10
287216.64
 20
6717277.34
  0
VERTEX
  8
cont
 10
287218.48
 20
6717277.5
  0
VERTEX
  8
cont
 10
287220.9
 20
6717277.08
  0
VERTEX
  8
cont
 10
287221.32
 20
6717277
  0
VERTEX
  8
cont
 10
287224.5
 20
6717275.48
  0
VERTEX
  8
cont
 10
287226.28
 20
6717275
  0
VERTEX
  8
cont
 10
287225.44
 20
6717273
  0
VERTEX
  8
cont
 10
287226.66
 20
6717271
  0
VERTEX
  8
cont
 10
287227.44
 20
6717270.54
  0
VERTEX
  8
cont
 10
287229.94
 20
6717269
  0
VERTEX
  8
cont
 10
287232.02
 20
6717267.96
  0
VERTEX
  8
cont
 10
287233.4
 20
6717268.58
  0
VERTEX
  8
cont
 10
287234.18
 20
6717269.8
  0
VERTEX
  8
cont
 10
287235.48
 20
6717270.5
  0
VERTEX
  8
cont
 10
287236.64
 20
6717271.34
  0
VERTEX
  8
cont
 10
287237.92
 20
6717272.06
  0
VERTEX
  8
cont
 10
287238.6
 20
6717273.4
  0
VERTEX
  8
cont
 10
287239.58
 20
6717274.4
  0
VERTEX
  8
cont
 10
287240.3
 20
6717275.68
  0
VERTEX
  8
cont
 10
287241.4
 20
6717276.58
  0
VERTEX
  8
cont
 10
287242.9
 20
6717277.08
  0
VERTEX
  8
cont
 10
287243.2
 20
6717277
  0
VERTEX
  8
cont
 10
287246.14
 20
6717275.84
  0
VERTEX
  8
cont
 10
287248.06
 20
6717275.92
  0
VERTEX
  8
cont
 10
287250.58
 20
6717275.4
  0
VERTEX
  8
cont
 10
287252.52
 20
6717275.46
  0
VERTEX
  8
cont
 10
287253.78
 20
6717276.2
  0
VERTEX
  8
cont
 10
287256.14
 20
6717275.84
  0
VERTEX
  8
cont
 10
287258.56
 20
6717275
  0
VERTEX
  8
cont
 10
287259.92
 20
6717273
  0
VERTEX
  8
cont
 10
287261.4
 20
6717272.58
  0
VERTEX
  8
cont
 10
287262.24
 20
6717273.74
  0
VERTEX
  8
cont
 10
287264.04
 20
6717273.94
  0
VERTEX
  8
cont
 10
287264.8
 20
6717275.18
  0
VERTEX
  8
cont
 10
287266.64
 20
6717275.34
  0
VERTEX
  8
cont
 10
287267.52
 20
6717275
  0
VERTEX
  8
cont
 10
287269.74
 20
6717273
  0
VERTEX
  8
cont
 10
287271.58
 20
6717271
  0
VERTEX
  8
cont
 10
287273.92
 20
6717269
  0
VERTEX
  8
cont
 10
287275.66
 20
6717268.32
  0
VERTEX
  8
cont
 10
287278.22
 20
6717267.76
  0
VERTEX
  8
cont
 10
287279
 20
6717267.56
  0
VERTEX
  8
cont
 10
287280.74
 20
6717267.24
  0
VERTEX
  8
cont
 10
287281
 20
6717267.2
  0
VERTEX
  8
cont
 10
287281.5
 20
6717267
  0
VERTEX
  8
cont
 10
287283
 20
6717266.12
  0
VERTEX
  8
cont
 10
287284.62
 20
6717265
  0
VERTEX
  8
cont
 10
287285
 20
6717264.66
  0
SEQEND
  0
POLYLINE
 66
1
  8
cont
  0
VERTEX
  8
cont
 10
287157
 20
6717268.72
  0
VERTEX
  8
cont
 10
287156.52
 20
6717269
  0
VERTEX
  8
cont
 10
287156
 20
6717270
  0
VERTEX
  8
cont
 10
287155.5
 20
6717271
  0
VERTEX
  8
cont
 10
287155.5
 20
6717272.48
  0
VERTEX
  8
cont
 10
287155.38
 20
6717273
  0
VERTEX
  8
cont
 10
287155
 20
6717274
  0
SEQEND
  0
POLYLINE
 66
1
  8
cont
  0
VERTEX
  8
cont
 10
287157
 20
6717268.72
  0
VERTEX
  8
cont
 10
287157.64
 20
6717268.34
  0
VERTEX
  8
cont
 10
287159
 20
6717267.54
  0
VERTEX
  8
cont
 10
287159.86
 20
6717267
  0
VERTEX
  8
cont
 10
287161
 20
6717266.24
  0
VERTEX
  8
cont
 10
287163
 20
6717265.74
  0
VERTEX
  8
cont
 10
287165
 20
6717265.78
  0
VERTEX
  8
cont
 10
287167
 20
6717265.66
  0
VERTEX
  8
cont
 10
287169
 20
6717265.44
  0
VERTEX
  8
cont
 10
287171
 20
6717264.24
  0
VERTEX
  8
cont
 10
287173
 20
6717263.7
  0
VERTEX
  8
cont
 10
287175
 20
6717263.1
  0
VERTEX
  8
cont
 10
287177
 20
6717262.42
  0
VERTEX
  8
cont
 10
287179
 20
6717262.64
  0
VERTEX
  8
cont
 10
287181
 20
6717261.78
  0
VERTEX
  8
cont
 10
287183
 20
6717260.38
  0
VERTEX
  8
cont
 10
287185
 20
6717259.68
  0
VERTEX
  8
cont
 10
287187
 20
6717259.46
  0
VERTEX
  8
cont
 10
287189
 20
6717258.58
  0
VERTEX
  8
cont
 10
287191
 20
6717258.26
  0
VERTEX
  8
cont
 10
287192.6
 20
6717259
  0
VERTEX
  8
cont
 10
287193
 20
6717259.24
  0
VERTEX
  8
cont
 10
287195
 20
6717260.08
  0
VERTEX
  8
cont
 10
287196.32
 20
6717261
  0
VERTEX
  8
cont
 10
287197
 20
6717261.64
  0
VERTEX
  8
cont
 10
287197.34
 20
6717260.64
  0
VERTEX
  8
cont
 10
287199
 20
6717257.28
  0
VERTEX
  8
cont
 10
287201
 20
6717256.38
  0
VERTEX
  8
cont
 10
287203
 20
6717256.12
  0
VERTEX
  8
cont
 10
287205
 20
6717254.18
  0
VERTEX
  8
cont
 10
287207
 20
6717252.18
  0
VERTEX
  8
cont
 10
287209
 20
6717251.28
  0
VERTEX
  8
cont
 10
287211
 20
6717249.8
  0
VERTEX
  8
cont
 10
287212.18
 20
6717247.8
  0
VERTEX
  8
cont
 10
287213
 20
6717246.44
  0
VERTEX
  8
cont
 10
287215
 20
6717244.26
  0
VERTEX
  8
cont
 10
287217
 20
6717243.36
  0
VERTEX
  8
cont
 10
287219
 20
6717242.48
  0
VERTEX
  8
cont
 10
287221
 20
6717240.5
  0
VERTEX
  8
cont
 10
287222.5
 20
6717237.48
  0
VERTEX
  8
cont
 10
287223
 20
6717236.6
  0
VERTEX
  8
cont
 10
287225
 20
6717236.06
  0
VERTEX
  8
cont
 10
287227
 20
6717234.34
  0
VERTEX
  8
cont
 10
287229
 20
6717231.86
  0
VERTEX
  8
cont
 10
287231
 20
6717230
  0
VERTEX
  8
cont
 10
287233
 20
6717229.76
  0
VERTEX
  8
cont
 10
287233.96
 20
6717228.02
  0
VERTEX
  8
cont
 10
287235
 20
6717225.96
  0
VERTEX
  8
cont
 10
287235.56
 20
6717225
  0
VERTEX
  8
cont
 10
287235.56
 20
6717224.42
  0
VERTEX
  8
cont
 10
287235.56
 20
6717223
  0
VERTEX
  8
cont
 10
287235.82
 20
6717222.16
  0
VERTEX
  8
cont
 10
287235.82
 20
6717221
  0
VERTEX
  8
cont
 10
287235.92
 20
6717220.06
  0
VERTEX
  8
cont
 10
287236
 20
6717219
  0
SEQEND
  0
POLYLINE
 66
1
  8
cont
  0
VERTEX
  8
cont
 10
287285
 20
6717330.4
  0
VERTEX
  8
cont
 10
287284
 20
6717331
  0
VERTEX
  8
cont
 10
287284
 20
6717332
  0
VERTEX
  8
cont
 10
287285
 20
6717332
  0
SEQEND
  0
POLYLINE
 66
1
  8
cont
  0
VERTEX
  8
cont
 10
286985
 20
6717446.28
  0
VERTEX
  8
cont
 10
286984.14
 20
6717447
  0
VERTEX
  8
cont
 10
286984.26
 20
6717447.72
  0
VERTEX
  8
cont
 10
286985
 20
6717447.72
  0
VERTEX
  8
cont
 10
286986.18
 20
6717447.8
  0
VERTEX
  8
cont
 10
286988.1
 20
6717447.88
  0
VERTEX
  8
cont
 10
286989.88
 20
6717447
  0
VERTEX
  8
cont
 10
286989
 20
6717446.02
  0
VERTEX
  8
cont
 10
286987.78
 20
6717446.2
  0
VERTEX
  8
cont
 10
286987.56
 20
6717445
  0
VERTEX
  8
cont
 10
286987.42
 20
6717444.56
  0
VERTEX
  8
cont
 10
286987
 20
6717444.62
  0
VERTEX
  8
cont
 10
286986.42
 20
6717445
  0
VERTEX
  8
cont
 10
286985
 20
6717446.28
  0
SEQEND
  0
POLYLINE
 66
1
  8
cont
  0
VERTEX
  8
cont
 10
286997
 20
6717442.7
  0
VERTEX
  8
cont
 10
286996.36
 20
6717443
  0
VERTEX
  8
cont
 10
286996.46
 20
6717443.52
  0
VERTEX
  8
cont
 10
286997
 20
6717444
  0
VERTEX
  8
cont
 10
286997.44
 20
6717444.54
  0
VERTEX
  8
cont
 10
286997.36
 20
6717446.62
  0
VERTEX
  8
cont
 10
286998.02
 20
6717447.96
  0
VERTEX
  8
cont
 10
286998.1
 20
6717449.88
  0
VERTEX
  8
cont
 10
286998.32
 20
6717451.66
  0
VERTEX
  8
cont
 10
286998.32
 20
6717453.66
  0
VERTEX
  8
cont
 10
286998.44
 20
6717455.54
  0
VERTEX
  8
cont
 10
287000.16
 20
6717455.82
  0
VERTEX
  8
cont
 10
287001.6
 20
6717456.38
  0
VERTEX
  8
cont
 10
287002.46
 20
6717457.52
  0
VERTEX
  8
cont
 10
287002.24
 20
6717459.74
  0
VERTEX
  8
cont
 10
287002.82
 20
6717461.16
  0
VERTEX
  8
cont
 10
287004.3
 20
6717461.68
  0
VERTEX
  8
cont
 10
287004.84
 20
6717463.14
  0
VERTEX
  8
cont
 10
287004.86
 20
6717465.12
  0
VERTEX
  8
cont
 10
287004.84
 20
6717467.14
  0
VERTEX
  8
cont
 10
287006.02
 20
6717467.96
  0
VERTEX
  8
cont
 10
287007.08
 20
6717468.9
  0
VERTEX
  8
cont
 10
287007
 20
6717469.3
  0
VERTEX
  8
cont
 10
287005.94
 20
6717472.04
  0
VERTEX
  8
cont
 10
287005.6
 20
6717474.38
  0
VERTEX
  8
cont
 10
287006.24
 20
6717475.74
  0
VERTEX
  8
cont
 10
287007.28
 20
6717476.7
  0
VERTEX
  8
cont
 10
287008.34
 20
6717477.64
  0
VERTEX
  8
cont
 10
287009.7
 20
6717478.28
  0
VERTEX
  8
cont
 10
287010.78
 20
6717479.2
  0
VERTEX
  8
cont
 10
287011.98
 20
6717480
  0
VERTEX
  8
cont
 10
287013.24
 20
6717480.74
  0
VERTEX
  8
cont
 10
287014.3
 20
6717481.68
  0
VERTEX
  8
cont
 10
287015.86
 20
6717482.12
  0
VERTEX
  8
cont
 10
287017.14
 20
6717482.84
  0
VERTEX
  8
cont
 10
287018.56
 20
6717483.42
  0
VERTEX
  8
cont
 10
287020.02
 20
6717483.96
  0
VERTEX
  8
cont
 10
287020.8
 20
6717485.18
  0
VERTEX
  8
cont
 10
287021.74
 20
6717486.24
  0
VERTEX
  8
cont
 10
287023.2
 20
6717486.78
  0
VERTEX
  8
cont
 10
287023.64
 20
6717488.34
  0
VERTEX
  8
cont
 10
287024.5
 20
6717489.48
  0
VERTEX
  8
cont
 10
287025.54
 20
6717490.44
  0
VERTEX
  8
cont
 10
287025.64
 20
6717492.34
  0
VERTEX
  8
cont
 10
287026.16
 20
6717493.82
  0
VERTEX
  8
cont
 10
287026.88
 20
6717495.1
  0
VERTEX
  8
cont
 10
287028.12
 20
6717495.86
  0
VERTEX
  8
cont
 10
287029.2
 20
6717496.78
  0
VERTEX
  8
cont
 10
287030.4
 20
6717497.58
  0
VERTEX
  8
cont
 10
287031.18
 20
6717498.8
  0
VERTEX
  8
cont
 10
287031.92
 20
6717500.06
  0
VERTEX
  8
cont
 10
287032.86
 20
6717501.12
  0
VERTEX
  8
cont
 10
287032.86
 20
6717503.12
  0
VERTEX
  8
cont
 10
287034.16
 20
6717503.82
  0
VERTEX
  8
cont
 10
287034.78
 20
6717505.2
  0
VERTEX
  8
cont
 10
287035.18
 20
6717506.8
  0
VERTEX
  8
cont
 10
287035.4
 20
6717508.58
  0
VERTEX
  8
cont
 10
287035.9
 20
6717510.08
  0
VERTEX
  8
cont
 10
287035.7
 20
6717512.28
  0
VERTEX
  8
cont
 10
287035.92
 20
6717514.06
  0
VERTEX
  8
cont
 10
287036.04
 20
6717515.94
  0
VERTEX
  8
cont
 10
287036.8
 20
6717517.18
  0
VERTEX
  8
cont
 10
287037.56
 20
6717518.42
  0
VERTEX
  8
cont
 10
287038
 20
6717519.98
  0
VERTEX
  8
cont
 10
287039.26
 20
6717520.72
  0
VERTEX
  8
cont
 10
287039
 20
6717522.5
  0
VERTEX
  8
cont
 10
287038.74
 20
6717523.24
  0
VERTEX
  8
cont
 10
287039.12
 20
6717524.86
  0
VERTEX
  8
cont
 10
287039
 20
6717525.12
  0
VERTEX
  8
cont
 10
287037
 20
6717526.74
  0
VERTEX
  8
cont
 10
287035
 20
6717528.5
  0
VERTEX
  8
cont
 10
287033.82
 20
6717530.16
  0
VERTEX
  8
cont
 10
287033.92
 20
6717531
  0
VERTEX
  8
cont
 10
287033
 20
6717532.48
  0
VERTEX
  8
cont
 10
287032.76
 20
6717533
  0
VERTEX
  8
cont
 10
287032.82
 20
6717533.16
  0
VERTEX
  8
cont
 10
287033
 20
6717533.36
  0
VERTEX
  8
cont
 10
287034.46
 20
6717533.52
  0
VERTEX
  8
cont
 10
287034.14
 20
6717535
  0
SEQEND
  0
POLYLINE
 66
1
  8
cont
  0
VERTEX
  8
cont
 10
286997
 20
6717490.04
  0
VERTEX
  8
cont
 10
286996.04
 20
6717491
  0
VERTEX
  8
cont
 10
286995.88
 20
6717492.1
  0
VERTEX
  8
cont
 10
286997
 20
6717492.36
  0
VERTEX
  8
cont
 10
286997.52
 20
6717492.46
  0
VERTEX
  8
cont
 10
286998.1
 20
6717493.88
  0
VERTEX
  8
cont
 10
287000.02
 20
6717493.96
  0
VERTEX
  8
cont
 10
287001.94
 20
6717493
  0
VERTEX
  8
cont
 10
287001
 20
6717491.7
  0
VERTEX
  8
cont
 10
287000.28
 20
6717491
  0
VERTEX
  8
cont
 10
287000.1
 20
6717489.88
  0
VERTEX
  8
cont
 10
286999.88
 20
6717489
  0
VERTEX
  8
cont
 10
286999.5
 20
6717488.48
  0
VERTEX
  8
cont
 10
286999
 20
6717488.52
  0
VERTEX
  8
cont
 10
286998.14
 20
6717489
  0
VERTEX
  8
cont
 10
286997
 20
6717490.04
  0
SEQEND
  0
POLYLINE
 66
1
  8
cont
  0
VERTEX
  8
cont
 10
286999
 20
6717440.66
  0
VERTEX
  8
cont
 10
286998.64
 20
6717441
  0
VERTEX
  8
cont
 10
286997
 20
6717442.7
  0
SEQEND
  0
POLYLINE
 66
1
  8
cont
  0
VERTEX
  8
cont
 10
286999
 20
6717440.66
  0
VERTEX
  8
cont
 10
286999.64
 20
6717440.34
  0
VERTEX
  8
cont
 10
287001
 20
6717439.88
  0
VERTEX
  8
cont
 10
287002.66
 20
6717439
  0
VERTEX
  8
cont
 10
287003
 20
6717438.26
  0
VERTEX
  8
cont
 10
287005
 20
6717438.6
  0
VERTEX
  8
cont
 10
287005.6
 20
6717436.38
  0
VERTEX
  8
cont
 10
287007
 20
6717433.86
  0
VERTEX
  8
cont
 10
287009
 20
6717433.24
  0
VERTEX
  8
cont
 10
287009.64
 20
6717432.34
  0
VERTEX
  8
cont
 10
287011
 20
6717430.32
  0
VERTEX
  8
cont
 10
287013
 20
6717429.6
  0
VERTEX
  8
cont
 10
287015
 20
6717428.46
  0
VERTEX
  8
cont
 10
287017
 20
6717427.88
  0
VERTEX
  8
cont
 10
287019
 20
6717425.78
  0
VERTEX
  8
cont
 10
287021
 20
6717425.54
  0
VERTEX
  8
cont
 10
287023
 20
6717424.84
  0
VERTEX
  8
cont
 10
287025
 20
6717422.3
  0
VERTEX
  8
cont
 10
287027
 20
6717421.32
  0
VERTEX
  8
cont
 10
287027.82
 20
6717420.16
  0
VERTEX
  8
cont
 10
287028.28
 20
6717417.7
  0
VERTEX
  8
cont
 10
287028.6
 20
6717415.38
  0
VERTEX
  8
cont
 10
287029
 20
6717414.88
  0
VERTEX
  8
cont
 10
287031
 20
6717413.74
  0
VERTEX
  8
cont
 10
287033
 20
6717412.64
  0
VERTEX
  8
cont
 10
287035
 20
6717412
  0
VERTEX
  8
cont
 10
287037
 20
6717411.36
  0
VERTEX
  8
cont
 10
287037.92
 20
6717410.06
  0
VERTEX
  8
cont
 10
287039
 20
6717407.14
  0
VERTEX
  8
cont
 10
287041
 20
6717406.34
  0
VERTEX
  8
cont
 10
287043
 20
6717406.44
  0
VERTEX
  8
cont
 10
287045
 20
6717405.5
  0
VERTEX
  8
cont
 10
287047
 20
6717404.04
  0
VERTEX
  8
cont
 10
287049
 20
6717403.66
  0
VERTEX
  8
cont
 10
287051
 20
6717402.32
  0
VERTEX
  8
cont
 10
287053
 20
6717402.64
  0
VERTEX
  8
cont
 10
287055
 20
6717402.4
  0
VERTEX
  8
cont
 10
287057
 20
6717402.42
  0
VERTEX
  8
cont
 10
287059
 20
6717402.42
  0
VERTEX
  8
cont
 10
287060.52
 20
6717403
  0
VERTEX
  8
cont
 10
287061
 20
6717403.2
  0
VERTEX
  8
cont
 10
287063
 20
6717403.96
  0
VERTEX
  8
cont
 10
287065
 20
6717403.84
  0
VERTEX
  8
cont
 10
287067
 20
6717403.14
  0
VERTEX
  8
cont
 10
287069
 20
6717402.86
  0
VERTEX
  8
cont
 10
287071
 20
6717402.66
  0
VERTEX
  8
cont
 10
287073
 20
6717401.98
  0
VERTEX
  8
cont
 10
287075
 20
6717400.04
  0
VERTEX
  8
cont
 10
287076.22
 20
6717397.76
  0
VERTEX
  8
cont
 10
287076.5
 20
6717395.48
  0
VERTEX
  8
cont
 10
287077
 20
6717394.74
  0
VERTEX
  8
cont
 10
287079
 20
6717393.96
  0
VERTEX
  8
cont
 10
287081
 20
6717393.62
  0
VERTEX
  8
cont
 10
287083
 20
6717392.84
  0
VERTEX
  8
cont
 10
287085
 20
6717392.52
  0
VERTEX
  8
cont
 10
287087
 20
6717391.76
  0
VERTEX
  8
cont
 10
287089
 20
6717391.64
  0
VERTEX
  8
cont
 10
287091
 20
6717392.16
  0
VERTEX
  8
cont
 10
287092.08
 20
6717393
  0
VERTEX
  8
cont
 10
287093
 20
6717393.22
  0
VERTEX
  8
cont
 10
287095
 20
6717394.16
  0
VERTEX
  8
cont
 10
287096.26
 20
6717395
  0
VERTEX
  8
cont
 10
287097
 20
6717395.92
  0
VERTEX
  8
cont
 10
287098.08
 20
6717397
  0
VERTEX
  8
cont
 10
287098
 20
6717399
  0
VERTEX
  8
cont
 10
287099
 20
6717399.48
  0
VERTEX
  8
cont
 10
287101
 20
6717398.6
  0
VERTEX
  8
cont
 10
287103
 20
6717398.86
  0
VERTEX
  8
cont
 10
287105
 20
6717398.84
  0
VERTEX
  8
cont
 10
287107
 20
6717398.82
  0
VERTEX
  8
cont
 10
287107.92
 20
6717399
  0
VERTEX
  8
cont
 10
287109
 20
6717399.18
  0
VERTEX
  8
cont
 10
287111
 20
6717399.34
  0
VERTEX
  8
cont
 10
287113
 20
6717399.12
  0
VERTEX
  8
cont
 10
287115
 20
6717399.7
  0
VERTEX
  8
cont
 10
287117
 20
6717399.6
  0
VERTEX
  8
cont
 10
287119
 20
6717399.72
  0
VERTEX
  8
cont
 10
287121
 20
6717399.66
  0
VERTEX
  8
cont
 10
287123
 20
6717399.34
  0
VERTEX
  8
cont
 10
287125
 20
6717398.4
  0
VERTEX
  8
cont
 10
287127
 20
6717397.8
  0
VERTEX
  8
cont
 10
287129
 20
6717396.56
  0
VERTEX
  8
cont
 10
287130.04
 20
6717397
  0
VERTEX
  8
cont
 10
287131
 20
6717397.38
  0
VERTEX
  8
cont
 10
287133
 20
6717396.86
  0
VERTEX
  8
cont
 10
287135
 20
6717396.84
  0
VERTEX
  8
cont
 10
287135.66
 20
6717397
  0
VERTEX
  8
cont
 10
287137
 20
6717397.34
  0
VERTEX
  8
cont
 10
287139
 20
6717397.5
  0
VERTEX
  8
cont
 10
287141
 20
6717397.36
  0
VERTEX
  8
cont
 10
287143
 20
6717397.12
  0
VERTEX
  8
cont
 10
287145
 20
6717397.2
  0
VERTEX
  8
cont
 10
287147
 20
6717397.26
  0
VERTEX
  8
cont
 10
287149
 20
6717395.76
  0
VERTEX
  8
cont
 10
287150
 20
6717394
  0
VERTEX
  8
cont
 10
287151
 20
6717392
  0
VERTEX
  8
cont
 10
287152
 20
6717390
  0
VERTEX
  8
cont
 10
287153
 20
6717388.06
  0
VERTEX
  8
cont
 10
287155
 20
6717386.32
  0
VERTEX
  8
cont
 10
287157
 20
6717385.7
  0
VERTEX
  8
cont
 10
287159
 20
6717384.24
  0
VERTEX
  8
cont
 10
287161
 20
6717383.36
  0
VERTEX
  8
cont
 10
287163
 20
6717381.66
  0
VERTEX
  8
cont
 10
287165
 20
6717379.74
  0
VERTEX
  8
cont
 10
287165.62
 20
6717378.36
  0
VERTEX
  8
cont
 10
287165.52
 20
6717376.46
  0
VERTEX
  8
cont
 10
287164.28
 20
6717375.7
  0
VERTEX
  8
cont
 10
287163.7
 20
6717374.28
  0
VERTEX
  8
cont
 10
287163.62
 20
6717372.36
  0
VERTEX
  8
cont
 10
287162.28
 20
6717371.7
  0
VERTEX
  8
cont
 10
287163
 20
6717370
  0
VERTEX
  8
cont
 10
287164
 20
6717368
  0
VERTEX
  8
cont
 10
287164.22
 20
6717365.76
  0
VERTEX
  8
cont
 10
287163.86
 20
6717364.12
  0
VERTEX
  8
cont
 10
287164.22
 20
6717361.76
  0
VERTEX
  8
cont
 10
287164.1
 20
6717359.88
  0
VERTEX
  8
cont
 10
287164.06
 20
6717357.92
  0
VERTEX
  8
cont
 10
287163.88
 20
6717356.1
  0
VERTEX
  8
cont
 10
287165
 20
6717353.88
  0
VERTEX
  8
cont
 10
287167
 20
6717352
  0
VERTEX
  8
cont
 10
287169
 20
6717349.48
  0
VERTEX
  8
cont
 10
287171
 20
6717350.26
  0
VERTEX
  8
cont
 10
287173
 20
6717348.44
  0
VERTEX
  8
cont
 10
287175
 20
6717348.12
  0
VERTEX
  8
cont
 10
287177
 20
6717347.98
  0
VERTEX
  8
cont
 10
287179
 20
6717346.2
  0
VERTEX
  8
cont
 10
287181
 20
6717344.46
  0
VERTEX
  8
cont
 10
287183
 20
6717343.54
  0
VERTEX
  8
cont
 10
287185
 20
6717343.3
  0
VERTEX
  8
cont
 10
287187
 20
6717343.22
  0
VERTEX
  8
cont
 10
287189
 20
6717343.6
  0
VERTEX
  8
cont
 10
287191
 20
6717343.78
  0
VERTEX
  8
cont
 10
287193
 20
6717343.94
  0
VERTEX
  8
cont
 10
287195
 20
6717344.1
  0
VERTEX
  8
cont
 10
287197
 20
6717342.68
  0
VERTEX
  8
cont
 10
287199
 20
6717341.96
  0
VERTEX
  8
cont
 10
287201
 20
6717341.82
  0
VERTEX
  8
cont
 10
287203
 20
6717341.72
  0
VERTEX
  8
cont
 10
287205
 20
6717342.2
  0
VERTEX
  8
cont
 10
287207
 20
6717342.46
  0
VERTEX
  8
cont
 10
287208.4
 20
6717343
  0
VERTEX
  8
cont
 10
287209
 20
6717343.38
  0
VERTEX
  8
cont
 10
287211
 20
6717343.86
  0
VERTEX
  8
cont
 10
287213
 20
6717344.72
  0
VERTEX
  8
cont
 10
287213.42
 20
6717345
  0
VERTEX
  8
cont
 10
287214.76
 20
6717347
  0
VERTEX
  8
cont
 10
287215
 20
6717347.3
  0
VERTEX
  8
cont
 10
287217
 20
6717347.24
  0
VERTEX
  8
cont
 10
287219
 20
6717347.46
  0
VERTEX
  8
cont
 10
287220.7
 20
6717349
  0
VERTEX
  8
cont
 10
287218.16
 20
6717351
  0
VERTEX
  8
cont
 10
287216.78
 20
6717351.2
  0
VERTEX
  8
cont
 10
287214.62
 20
6717351.36
  0
VERTEX
  8
cont
 10
287211.56
 20
6717352.42
  0
VERTEX
  8
cont
 10
287210.36
 20
6717353
  0
VERTEX
  8
cont
 10
287207.44
 20
6717354.54
  0
VERTEX
  8
cont
 10
287205.18
 20
6717354.8
  0
VERTEX
  8
cont
 10
287204.42
 20
6717355
  0
VERTEX
  8
cont
 10
287201.56
 20
6717356.42
  0
VERTEX
  8
cont
 10
287199.66
 20
6717356.32
  0
VERTEX
  8
cont
 10
287197.64
 20
6717357
  0
VERTEX
  8
cont
 10
287196.7
 20
6717357.28
  0
VERTEX
  8
cont
 10
287194.14
 20
6717357.84
  0
VERTEX
  8
cont
 10
287193.2
 20
6717356.78
  0
VERTEX
  8
cont
 10
287192.58
 20
6717357
  0
VERTEX
  8
cont
 10
287191.84
 20
6717359
  0
VERTEX
  8
cont
 10
287190.3
 20
6717359.68
  0
VERTEX
  8
cont
 10
287188
 20
6717360
  0
VERTEX
  8
cont
 10
287185.74
 20
6717360.24
  0
VERTEX
  8
cont
 10
287185.2
 20
6717358.78
  0
VERTEX
  8
cont
 10
287184.34
 20
6717359
  0
VERTEX
  8
cont
 10
287184
 20
6717361
  0
VERTEX
  8
cont
 10
287182
 20
6717363
  0
VERTEX
  8
cont
 10
287183
 20
6717363.9
  0
VERTEX
  8
cont
 10
287184.08
 20
6717365
  0
VERTEX
  8
cont
 10
287185
 20
6717365.8
  0
VERTEX
  8
cont
 10
287186.18
 20
6717367
  0
VERTEX
  8
cont
 10
287187
 20
6717367.52
  0
VERTEX
  8
cont
 10
287189
 20
6717367.56
  0
VERTEX
  8
cont
 10
287191
 20
6717367.92
  0
VERTEX
  8
cont
 10
287193
 20
6717368.04
  0
VERTEX
  8
cont
 10
287195
 20
6717368.22
  0
VERTEX
  8
cont
 10
287197
 20
6717368.42
  0
VERTEX
  8
cont
 10
287197.86
 20
6717369
  0
VERTEX
  8
cont
 10
287199
 20
6717369.52
  0
VERTEX
  8
cont
 10
287200.56
 20
6717371
  0
VERTEX
  8
cont
 10
287201
 20
6717371.46
  0
VERTEX
  8
cont
 10
287203
 20
6717372.06
  0
VERTEX
  8
cont
 10
287205
 20
6717372
  0
VERTEX
  8
cont
 10
287207
 20
6717372
  0
VERTEX
  8
cont
 10
287209
 20
6717370.22
  0
VERTEX
  8
cont
 10
287211
 20
6717369.82
  0
VERTEX
  8
cont
 10
287213
 20
6717368.38
  0
VERTEX
  8
cont
 10
287215
 20
6717366.56
  0
VERTEX
  8
cont
 10
287217
 20
6717366.02
  0
VERTEX
  8
cont
 10
287219
 20
6717364.56
  0
VERTEX
  8
cont
 10
287221
 20
6717363.34
  0
VERTEX
  8
cont
 10
287223
 20
6717362.44
  0
VERTEX
  8
cont
 10
287223.5
 20
6717363
  0
VERTEX
  8
cont
 10
287225
 20
6717364.74
  0
VERTEX
  8
cont
 10
287225.3
 20
6717365
  0
VERTEX
  8
cont
 10
287224.14
 20
6717367
  0
VERTEX
  8
cont
 10
287222.6
 20
6717369
  0
VERTEX
  8
cont
 10
287222.3
 20
6717371
  0
VERTEX
  8
cont
 10
287220.5
 20
6717373
  0
VERTEX
  8
cont
 10
287217.5
 20
6717375
  0
VERTEX
  8
cont
 10
287216.3
 20
6717375.68
  0
VERTEX
  8
cont
 10
287214
 20
6717376
  0
VERTEX
  8
cont
 10
287212
 20
6717377
  0
VERTEX
  8
cont
 10
287212
 20
6717379
  0
VERTEX
  8
cont
 10
287212.1
 20
6717381
  0
VERTEX
  8
cont
 10
287213
 20
6717382
  0
VERTEX
  8
cont
 10
287213.7
 20
6717383
  0
VERTEX
  8
cont
 10
287213.82
 20
6717385
  0
VERTEX
  8
cont
 10
287213.72
 20
6717387
  0
VERTEX
  8
cont
 10
287213.56
 20
6717389
  0
VERTEX
  8
cont
 10
287213.74
 20
6717391
  0
VERTEX
  8
cont
 10
287214.18
 20
6717393
  0
VERTEX
  8
cont
 10
287215
 20
6717393.7
  0
VERTEX
  8
cont
 10
287217
 20
6717392.16
  0
VERTEX
  8
cont
 10
287219
 20
6717392
  0
VERTEX
  8
cont
 10
287221
 20
6717391.36
  0
VERTEX
  8
cont
 10
287223
 20
6717390.06
  0
VERTEX
  8
cont
 10
287225
 20
6717387.6
  0
VERTEX
  8
cont
 10
287227
 20
6717387.26
  0
VERTEX
  8
cont
 10
287229
 20
6717387.72
  0
VERTEX
  8
cont
 10
287231
 20
6717387.22
  0
VERTEX
  8
cont
 10
287233
 20
6717387.18
  0
VERTEX
  8
cont
 10
287235
 20
6717385.88
  0
VERTEX
  8
cont
 10
287237
 20
6717384.66
  0
VERTEX
  8
cont
 10
287237.36
 20
6717385
  0
VERTEX
  8
cont
 10
287239
 20
6717385.44
  0
VERTEX
  8
cont
 10
287240.46
 20
6717383.52
  0
VERTEX
  8
cont
 10
287241
 20
6717382.48
  0
VERTEX
  8
cont
 10
287242.16
 20
6717383
  0
VERTEX
  8
cont
 10
287242.72
 20
6717385
  0
VERTEX
  8
cont
 10
287243
 20
6717385.08
  0
VERTEX
  8
cont
 10
287245
 20
6717383.36
  0
VERTEX
  8
cont
 10
287247
 20
6717381.76
  0
VERTEX
  8
cont
 10
287249
 20
6717381.54
  0
VERTEX
  8
cont
 10
287251
 20
6717381.46
  0
VERTEX
  8
cont
 10
287253
 20
6717381.64
  0
VERTEX
  8
cont
 10
287255
 20
6717381.84
  0
VERTEX
  8
cont
 10
287257
 20
6717382.46
  0
VERTEX
  8
cont
 10
287259
 20
6717381.46
  0
VERTEX
  8
cont
 10
287261
 20
6717380.32
  0
VERTEX
  8
cont
 10
287263
 20
6717379.74
  0
VERTEX
  8
cont
 10
287265
 20
6717377.96
  0
VERTEX
  8
cont
 10
287267
 20
6717376.36
  0
VERTEX
  8
cont
 10
287269
 20
6717375.84
  0
VERTEX
  8
cont
 10
287271
 20
6717375.48
  0
VERTEX
  8
cont
 10
287273
 20
6717374.36
  0
VERTEX
  8
cont
 10
287275
 20
6717373.76
  0
VERTEX
  8
cont
 10
287277
 20
6717371.78
  0
VERTEX
  8
cont
 10
287279
 20
6717371.32
  0
VERTEX
  8
cont
 10
287279.3
 20
6717371
  0
VERTEX
  8
cont
 10
287281
 20
6717369.58
  0
VERTEX
  8
cont
 10
287282.68
 20
6717369.3
  0
VERTEX
  8
cont
 10
287283
 20
6717369.12
  0
VERTEX
  8
cont
 10
287283.32
 20
6717369
  0
VERTEX
  8
cont
 10
287285
 20
6717368.2
  0
SEQEND
  0
POLYLINE
 66
1
  8
cont
  0
VERTEX
  8
cont
 10
287159
 20
6717350.88
  0
VERTEX
  8
cont
 10
287158.3
 20
6717351
  0
VERTEX
  8
cont
 10
287158
 20
6717352
  0
VERTEX
  8
cont
 10
287159
 20
6717351.94
  0
VERTEX
  8
cont
 10
287159.96
 20
6717352.02
  0
VERTEX
  8
cont
 10
287161.78
 20
6717352.2
  0
VERTEX
  8
cont
 10
287162.28
 20
6717353.7
  0
VERTEX
  8
cont
 10
287164.16
 20
6717353
  0
VERTEX
  8
cont
 10
287164.1
 20
6717351
  0
VERTEX
  8
cont
 10
287163.18
 20
6717350.8
  0
VERTEX
  8
cont
 10
287163
 20
6717350.78
  0
VERTEX
  8
cont
 10
287161.14
 20
6717350.84
  0
VERTEX
  8
cont
 10
287161
 20
6717350.86
  0
VERTEX
  8
cont
 10
287159.1
 20
6717350.88
  0
VERTEX
  8
cont
 10
287159
 20
6717350.88
  0
SEQEND
  0
POLYLINE
 66
1
  8
cont
  0
VERTEX
  8
cont
 10
287173
 20
6717274.62
  0
VERTEX
  8
cont
 10
287172.68
 20
6717275
  0
VERTEX
  8
cont
 10
287172.68
 20
6717275.3
  0
VERTEX
  8
cont
 10
287173
 20
6717275.38
  0
VERTEX
  8
cont
 10
287174.34
 20
6717275.64
  0
VERTEX
  8
cont
 10
287176.12
 20
6717275.86
  0
VERTEX
  8
cont
 10
287178.08
 20
6717275.9
  0
VERTEX
  8
cont
 10
287179.7
 20
6717275
  0
VERTEX
  8
cont
 10
287179.74
 20
6717273
  0
VERTEX
  8
cont
 10
287181.46
 20
6717271
  0
VERTEX
  8
cont
 10
287181
 20
6717270.5
  0
VERTEX
  8
cont
 10
287179
 20
6717270.48
  0
VERTEX
  8
cont
 10
287177.42
 20
6717270.56
  0
VERTEX
  8
cont
 10
287177
 20
6717270.5
  0
VERTEX
  8
cont
 10
287176.52
 20
6717271
  0
VERTEX
  8
cont
 10
287175
 20
6717272.48
  0
VERTEX
  8
cont
 10
287174.5
 20
6717273
  0
VERTEX
  8
cont
 10
287173
 20
6717274.62
  0
SEQEND
  0
POLYLINE
 66
1
  8
cont
  0
VERTEX
  8
cont
 10
287211
 20
6717320.66
  0
VERTEX
  8
cont
 10
287210.7
 20
6717321
  0
VERTEX
  8
cont
 10
287210.74
 20
6717321.24
  0
VERTEX
  8
cont
 10
287211
 20
6717321.32
  0
VERTEX
  8
cont
 10
287212.32
 20
6717321.66
  0
VERTEX
  8
cont
 10
287212.46
 20
6717323.52
  0
VERTEX
  8
cont
 10
287214.2
 20
6717323.78
  0
VERTEX
  8
cont
 10
287215.72
 20
6717323
  0
VERTEX
  8
cont
 10
287217.6
 20
6717321
  0
VERTEX
  8
cont
 10
287217.66
 20
6717319
  0
VERTEX
  8
cont
 10
287217.48
 20
6717317
  0
VERTEX
  8
cont
 10
287217.8
 20
6717315
  0
VERTEX
  8
cont
 10
287217
 20
6717314.28
  0
VERTEX
  8
cont
 10
287215
 20
6717314.54
  0
VERTEX
  8
cont
 10
287214.54
 20
6717315
  0
VERTEX
  8
cont
 10
287214.48
 20
6717315.5
  0
VERTEX
  8
cont
 10
287214.58
 20
6717317
  0
VERTEX
  8
cont
 10
287213
 20
6717318.36
  0
VERTEX
  8
cont
 10
287212.36
 20
6717319
  0
VERTEX
  8
cont
 10
287211
 20
6717320.66
  0
SEQEND
  0
POLYLINE
 66
1
  8
cont
  0
VERTEX
  8
cont
 10
287229
 20
6717244.54
  0
VERTEX
  8
cont
 10
287228.56
 20
6717245
  0
VERTEX
  8
cont
 10
287228.44
 20
6717245.54
  0
VERTEX
  8
cont
 10
287228.42
 20
6717247
  0
VERTEX
  8
cont
 10
287228.5
 20
6717247.48
  0
VERTEX
  8
cont
 10
287229.96
 20
6717248.02
  0
VERTEX
  8
cont
 10
287230.48
 20
6717249.5
  0
VERTEX
  8
cont
 10
287230.3
 20
6717251.68
  0
VERTEX
  8
cont
 10
287232.14
 20
6717251.84
  0
VERTEX
  8
cont
 10
287232.4
 20
6717253.58
  0
VERTEX
  8
cont
 10
287234.08
 20
6717253.9
  0
VERTEX
  8
cont
 10
287234.24
 20
6717255.74
  0
VERTEX
  8
cont
 10
287236
 20
6717255.98
  0
VERTEX
  8
cont
 10
287236.18
 20
6717257.8
  0
VERTEX
  8
cont
 10
287238.02
 20
6717257.96
  0
VERTEX
  8
cont
 10
287239.74
 20
6717258.24
  0
VERTEX
  8
cont
 10
287240.18
 20
6717259.8
  0
VERTEX
  8
cont
 10
287241.94
 20
6717260.04
  0
VERTEX
  8
cont
 10
287243.64
 20
6717260.34
  0
VERTEX
  8
cont
 10
287245.66
 20
6717260.32
  0
VERTEX
  8
cont
 10
287247.96
 20
6717260.02
  0
VERTEX
  8
cont
 10
287249.66
 20
6717260.32
  0
VERTEX
  8
cont
 10
287250.22
 20
6717261.76
  0
VERTEX
  8
cont
 10
287250.4
 20
6717263.58
  0
VERTEX
  8
cont
 10
287251.86
 20
6717264.12
  0
VERTEX
  8
cont
 10
287253.8
 20
6717264.18
  0
VERTEX
  8
cont
 10
287256.46
 20
6717263
  0
VERTEX
  8
cont
 10
287257.56
 20
6717262.42
  0
VERTEX
  8
cont
 10
287260.26
 20
6717261
  0
VERTEX
  8
cont
 10
287261.92
 20
6717259
  0
VERTEX
  8
cont
 10
287261.9
 20
6717257
  0
VERTEX
  8
cont
 10
287264.08
 20
6717255.9
  0
VERTEX
  8
cont
 10
287266.06
 20
6717255
  0
VERTEX
  8
cont
 10
287267.58
 20
6717254.4
  0
VERTEX
  8
cont
 10
287270.3
 20
6717253
  0
VERTEX
  8
cont
 10
287271.9
 20
6717251
  0
VERTEX
  8
cont
 10
287271
 20
6717250.32
  0
VERTEX
  8
cont
 10
287269
 20
6717249.64
  0
VERTEX
  8
cont
 10
287268.3
 20
6717249
  0
VERTEX
  8
cont
 10
287267
 20
6717247.66
  0
VERTEX
  8
cont
 10
287266.46
 20
6717247
  0
VERTEX
  8
cont
 10
287265
 20
6717245.7
  0
VERTEX
  8
cont
 10
287263.5
 20
6717245
  0
VERTEX
  8
cont
 10
287263
 20
6717244.52
  0
VERTEX
  8
cont
 10
287261
 20
6717243.98
  0
VERTEX
  8
cont
 10
287260.18
 20
6717243
  0
VERTEX
  8
cont
 10
287259.84
 20
6717241
  0
VERTEX
  8
cont
 10
287259
 20
6717240.3
  0
VERTEX
  8
cont
 10
287257
 20
6717240.26
  0
VERTEX
  8
cont
 10
287255
 20
6717240.32
  0
VERTEX
  8
cont
 10
287253
 20
6717240.28
  0
VERTEX
  8
cont
 10
287251
 20
6717240.32
  0
VERTEX
  8
cont
 10
287249
 20
6717240.04
  0
VERTEX
  8
cont
 10
287247.96
 20
6717239
  0
VERTEX
  8
cont
 10
287247
 20
6717238.26
  0
VERTEX
  8
cont
 10
287245
 20
6717238.16
  0
VERTEX
  8
cont
 10
287243
 20
6717238.28
  0
VERTEX
  8
cont
 10
287241
 20
6717238.46
  0
VERTEX
  8
cont
 10
287239
 20
6717238.4
  0
VERTEX
  8
cont
 10
287237
 20
6717238.4
  0
VERTEX
  8
cont
 10
287235
 20
6717238.76
  0
VERTEX
  8
cont
 10
287234.52
 20
6717239
  0
VERTEX
  8
cont
 10
287233
 20
6717240.26
  0
VERTEX
  8
cont
 10
287232.5
 20
6717241
  0
VERTEX
  8
cont
 10
287231
 20
6717242.68
  0
VERTEX
  8
cont
 10
287230.62
 20
6717243
  0
VERTEX
  8
cont
 10
287229
 20
6717244.54
  0
SEQEND
  0
POLYLINE
 66
1
  8
cont
  0
VERTEX
  8
cont
 10
287005
 20
6717451.3
  0
VERTEX
  8
cont
 10
287004.48
 20
6717453
  0
VERTEX
  8
cont
 10
287004.74
 20
6717453.24
  0
VERTEX
  8
cont
 10
287005
 20
6717453.4
  0
VERTEX
  8
cont
 10
287006.2
 20
6717453.78
  0
VERTEX
  8
cont
 10
287007.82
 20
6717454.16
  0
VERTEX
  8
cont
 10
287009.48
 20
6717454.5
  0
VERTEX
  8
cont
 10
287009.96
 20
6717456.02
  0
VERTEX
  8
cont
 10
287010.76
 20
6717457.22
  0
VERTEX
  8
cont
 10
287011.56
 20
6717458.42
  0
VERTEX
  8
cont
 10
287011.2
 20
6717460.78
  0
VERTEX
  8
cont
 10
287011.52
 20
6717462.46
  0
VERTEX
  8
cont
 10
287011.6
 20
6717464.38
  0
VERTEX
  8
cont
 10
287012.3
 20
6717465.68
  0
VERTEX
  8
cont
 10
287013.06
 20
6717466.92
  0
VERTEX
  8
cont
 10
287013.08
 20
6717468.9
  0
VERTEX
  8
cont
 10
287013.2
 20
6717470.78
  0
VERTEX
  8
cont
 10
287014.32
 20
6717471.66
  0
VERTEX
  8
cont
 10
287014.5
 20
6717473.48
  0
VERTEX
  8
cont
 10
287015.96
 20
6717474.02
  0
VERTEX
  8
cont
 10
287017.26
 20
6717474.72
  0
VERTEX
  8
cont
 10
287018.32
 20
6717475.66
  0
VERTEX
  8
cont
 10
287019.9
 20
6717476.08
  0
VERTEX
  8
cont
 10
287020.86
 20
6717477.12
  0
VERTEX
  8
cont
 10
287021.9
 20
6717478.08
  0
VERTEX
  8
cont
 10
287023.26
 20
6717478.72
  0
VERTEX
  8
cont
 10
287025.04
 20
6717478.94
  0
VERTEX
  8
cont
 10
287025.68
 20
6717480.3
  0
VERTEX
  8
cont
 10
287027.28
 20
6717480.7
  0
VERTEX
  8
cont
 10
287027.24
 20
6717482.74
  0
VERTEX
  8
cont
 10
287027.76
 20
6717484.22
  0
VERTEX
  8
cont
 10
287028.68
 20
6717485.3
  0
VERTEX
  8
cont
 10
287029.8
 20
6717486.18
  0
VERTEX
  8
cont
 10
287031.08
 20
6717486.9
  0
VERTEX
  8
cont
 10
287032.2
 20
6717487.78
  0
VERTEX
  8
cont
 10
287033.18
 20
6717488.8
  0
VERTEX
  8
cont
 10
287034.32
 20
6717489.66
  0
VERTEX
  8
cont
 10
287035.66
 20
6717490.32
  0
VERTEX
  8
cont
 10
287036.3
 20
6717491.68
  0
VERTEX
  8
cont
 10
287036.9
 20
6717493.08
  0
VERTEX
  8
cont
 10
287036.6
 20
6717495.38
  0
VERTEX
  8
cont
 10
287037.92
 20
6717496.06
  0
VERTEX
  8
cont
 10
287038.54
 20
6717497.44
  0
VERTEX
  8
cont
 10
287039.22
 20
6717498.76
  0
VERTEX
  8
cont
 10
287040.02
 20
6717499.96
  0
VERTEX
  8
cont
 10
287040.46
 20
6717501.52
  0
VERTEX
  8
cont
 10
287040.82
 20
6717503.16
  0
VERTEX
  8
cont
 10
287042.24
 20
6717503.74
  0
VERTEX
  8
cont
 10
287042.72
 20
6717505.26
  0
VERTEX
  8
cont
 10
287043.14
 20
6717506.84
  0
VERTEX
  8
cont
 10
287043
 20
6717507.36
  0
VERTEX
  8
cont
 10
287042.26
 20
6717509.72
  0
VERTEX
  8
cont
 10
287042.42
 20
6717511.56
  0
VERTEX
  8
cont
 10
287043.76
 20
6717512.22
  0
VERTEX
  8
cont
 10
287043.94
 20
6717514.04
  0
VERTEX
  8
cont
 10
287044.56
 20
6717515.42
  0
VERTEX
  8
cont
 10
287044.74
 20
6717517.24
  0
VERTEX
  8
cont
 10
287045.7
 20
6717518.28
  0
VERTEX
  8
cont
 10
287046.18
 20
6717519.8
  0
VERTEX
  8
cont
 10
287046.34
 20
6717521.64
  0
VERTEX
  8
cont
 10
287047.14
 20
6717522.84
  0
VERTEX
  8
cont
 10
287047.6
 20
6717524.38
  0
VERTEX
  8
cont
 10
287048.38
 20
6717525.6
  0
VERTEX
  8
cont
 10
287049.58
 20
6717526.4
  0
VERTEX
  8
cont
 10
287050.4
 20
6717527.58
  0
VERTEX
  8
cont
 10
287051.5
 20
6717528.48
  0
VERTEX
  8
cont
 10
287052.36
 20
6717529.62
  0
VERTEX
  8
cont
 10
287053.48
 20
6717530.5
  0
VERTEX
  8
cont
 10
287055
 20
6717530.86
  0
VERTEX
  8
cont
 10
287055.08
 20
6717530.9
  0
VERTEX
  8
cont
 10
287055.2
 20
6717531
  0
VERTEX
  8
cont
 10
287055.58
 20
6717532.4
  0
VERTEX
  8
cont
 10
287056.02
 20
6717533
  0
VERTEX
  8
cont
 10
287055
 20
6717534.54
  0
VERTEX
  8
cont
 10
287054.76
 20
6717535
  0
SEQEND
  0
POLYLINE
 66
1
  8
cont
  0
VERTEX
  8
cont
 10
287007
 20
6717437.96
  0
VERTEX
  8
cont
 10
287006.88
 20
6717439
  0
VERTEX
  8
cont
 10
287006.56
 20
6717439.42
  0
VERTEX
  8
cont
 10
287006.2
 20
6717441
  0
VERTEX
  8
cont
 10
287006.18
 20
6717441.8
  0
VERTEX
  8
cont
 10
287007.08
 20
6717442.9
  0
VERTEX
  8
cont
 10
287007
 20
6717443.22
  0
VERTEX
  8
cont
 10
287005.84
 20
6717446.14
  0
VERTEX
  8
cont
 10
287006.08
 20
6717447
  0
VERTEX
  8
cont
 10
287005.9
 20
6717448.08
  0
VERTEX
  8
cont
 10
287005.4
 20
6717449
  0
VERTEX
  8
cont
 10
287005.12
 20
6717450.86
  0
VERTEX
  8
cont
 10
287005.1
 20
6717451
  0
VERTEX
  8
cont
 10
287005
 20
6717451.3
  0
SEQEND
  0
POLYLINE
 66
1
  8
cont
  0
VERTEX
  8
cont
 10
287009
 20
6717436.72
  0
VERTEX
  8
cont
 10
287007.76
 20
6717437
  0
VERTEX
  8
cont
 10
287007
 20
6717437.96
  0
SEQEND
  0
POLYLINE
 66
1
  8
cont
  0
VERTEX
  8
cont
 10
287009
 20
6717436.72
  0
VERTEX
  8
cont
 10
287010.62
 20
6717435.36
  0
VERTEX
  8
cont
 10
287011
 20
6717435.1
  0
VERTEX
  8
cont
 10
287011.14
 20
6717435
  0
VERTEX
  8
cont
 10
287013
 20
6717433.54
  0
VERTEX
  8
cont
 10
287015
 20
6717432.34
  0
VERTEX
  8
cont
 10
287017
 20
6717431.38
  0
VERTEX
  8
cont
 10
287019
 20
6717430.16
  0
VERTEX
  8
cont
 10
287021
 20
6717429.96
  0
VERTEX
  8
cont
 10
287023
 20
6717429.1
  0
VERTEX
  8
cont
 10
287024
 20
6717428
  0
VERTEX
  8
cont
 10
287024.84
 20
6717425.14
  0
VERTEX
  8
cont
 10
287025
 20
6717424.94
  0
VERTEX
  8
cont
 10
287027
 20
6717424.54
  0
VERTEX
  8
cont
 10
287029
 20
6717424.08
  0
VERTEX
  8
cont
 10
287031
 20
6717424.44
  0
VERTEX
  8
cont
 10
287033
 20
6717422.28
  0
VERTEX
  8
cont
 10
287034.06
 20
6717419.92
  0
VERTEX
  8
cont
 10
287033.72
 20
6717418.26
  0
VERTEX
  8
cont
 10
287033.34
 20
6717416.64
  0
VERTEX
  8
cont
 10
287035
 20
6717413.96
  0
VERTEX
  8
cont
 10
287037
 20
6717413.26
  0
VERTEX
  8
cont
 10
287039
 20
6717411.32
  0
VERTEX
  8
cont
 10
287041
 20
6717410.48
  0
VERTEX
  8
cont
 10
287043
 20
6717409.66
  0
VERTEX
  8
cont
 10
287045
 20
6717408.82
  0
VERTEX
  8
cont
 10
287047
 20
6717408.14
  0
VERTEX
  8
cont
 10
287048.34
 20
6717409
  0
VERTEX
  8
cont
 10
287049
 20
6717409.18
  0
VERTEX
  8
cont
 10
287051
 20
6717407.64
  0
VERTEX
  8
cont
 10
287053
 20
6717408.06
  0
VERTEX
  8
cont
 10
287055
 20
6717408.22
  0
VERTEX
  8
cont
 10
287057
 20
6717407.56
  0
VERTEX
  8
cont
 10
287059
 20
6717407.74
  0
VERTEX
  8
cont
 10
287061
 20
6717408
  0
VERTEX
  8
cont
 10
287063
 20
6717407.4
  0
VERTEX
  8
cont
 10
287065
 20
6717407.74
  0
VERTEX
  8
cont
 10
287067
 20
6717408
  0
VERTEX
  8
cont
 10
287069
 20
6717408.22
  0
VERTEX
  8
cont
 10
287070.5
 20
6717409
  0
VERTEX
  8
cont
 10
287071
 20
6717409.2
  0
VERTEX
  8
cont
 10
287073
 20
6717409.44
  0
VERTEX
  8
cont
 10
287075
 20
6717410.8
  0
VERTEX
  8
cont
 10
287075.52
 20
6717411
  0
VERTEX
  8
cont
 10
287075.2
 20
6717413
  0
VERTEX
  8
cont
 10
287077
 20
6717413.3
  0
VERTEX
  8
cont
 10
287079
 20
6717413.38
  0
VERTEX
  8
cont
 10
287081
 20
6717411.72
  0
VERTEX
  8
cont
 10
287083
 20
6717410.42
  0
VERTEX
  8
cont
 10
287084
 20
6717411
  0
VERTEX
  8
cont
 10
287084.88
 20
6717413
  0
VERTEX
  8
cont
 10
287085
 20
6717413.3
  0
VERTEX
  8
cont
 10
287087
 20
6717412.56
  0
VERTEX
  8
cont
 10
287089
 20
6717412.82
  0
VERTEX
  8
cont
 10
287089.68
 20
6717413
  0
VERTEX
  8
cont
 10
287091
 20
6717413.58
  0
VERTEX
  8
cont
 10
287092.68
 20
6717415
  0
VERTEX
  8
cont
 10
287093
 20
6717415.14
  0
VERTEX
  8
cont
 10
287093.54
 20
6717414.44
  0
VERTEX
  8
cont
 10
287095
 20
6717412.42
  0
VERTEX
  8
cont
 10
287095.76
 20
6717410.22
  0
VERTEX
  8
cont
 10
287095.52
 20
6717408.46
  0
VERTEX
  8
cont
 10
287097
 20
6717405.6
  0
VERTEX
  8
cont
 10
287099
 20
6717404.1
  0
VERTEX
  8
cont
 10
287101
 20
6717403.64
  0
VERTEX
  8
cont
 10
287103
 20
6717404.2
  0
VERTEX
  8
cont
 10
287105
 20
6717404.18
  0
VERTEX
  8
cont
 10
287107
 20
6717404.72
  0
VERTEX
  8
cont
 10
287109
 20
6717404.62
  0
VERTEX
  8
cont
 10
287111
 20
6717404.08
  0
VERTEX
  8
cont
 10
287113
 20
6717404.16
  0
VERTEX
  8
cont
 10
287115
 20
6717403.42
  0
VERTEX
  8
cont
 10
287117
 20
6717404.1
  0
VERTEX
  8
cont
 10
287119
 20
6717404.88
  0
VERTEX
  8
cont
 10
287119.18
 20
6717405
  0
VERTEX
  8
cont
 10
287121
 20
6717406.02
  0
VERTEX
  8
cont
 10
287122.8
 20
6717407
  0
VERTEX
  8
cont
 10
287123
 20
6717407.1
  0
VERTEX
  8
cont
 10
287125
 20
6717407.94
  0
VERTEX
  8
cont
 10
287127
 20
6717408.38
  0
VERTEX
  8
cont
 10
287129
 20
6717407.84
  0
VERTEX
  8
cont
 10
287131
 20
6717407.36
  0
VERTEX
  8
cont
 10
287133
 20
6717407.22
  0
VERTEX
  8
cont
 10
287135
 20
6717407.92
  0
VERTEX
  8
cont
 10
287137
 20
6717408.4
  0
VERTEX
  8
cont
 10
287139
 20
6717408.82
  0
VERTEX
  8
cont
 10
287141
 20
6717408.36
  0
VERTEX
  8
cont
 10
287143
 20
6717407.96
  0
VERTEX
  8
cont
 10
287144.84
 20
6717409
  0
VERTEX
  8
cont
 10
287145
 20
6717409.1
  0
VERTEX
  8
cont
 10
287147
 20
6717408.28
  0
VERTEX
  8
cont
 10
287149
 20
6717408.44
  0
VERTEX
  8
cont
 10
287151
 20
6717408.8
  0
VERTEX
  8
cont
 10
287153
 20
6717408.44
  0
VERTEX
  8
cont
 10
287155
 20
6717408.46
  0
VERTEX
  8
cont
 10
287156.64
 20
6717409
  0
VERTEX
  8
cont
 10
287157
 20
6717409.1
  0
VERTEX
  8
cont
 10
287159
 20
6717410.06
  0
VERTEX
  8
cont
 10
287161
 20
6717409.68
  0
VERTEX
  8
cont
 10
287163
 20
6717410.28
  0
VERTEX
  8
cont
 10
287165
 20
6717410.56
  0
VERTEX
  8
cont
 10
287166.5
 20
6717411
  0
VERTEX
  8
cont
 10
287167
 20
6717411.14
  0
VERTEX
  8
cont
 10
287169
 20
6717412.34
  0
VERTEX
  8
cont
 10
287169.7
 20
6717413
  0
VERTEX
  8
cont
 10
287171
 20
6717413.68
  0
VERTEX
  8
cont
 10
287173
 20
6717413.56
  0
VERTEX
  8
cont
 10
287175
 20
6717414.26
  0
VERTEX
  8
cont
 10
287177
 20
6717414.72
  0
VERTEX
  8
cont
 10
287178
 20
6717415
  0
VERTEX
  8
cont
 10
287179
 20
6717415.24
  0
VERTEX
  8
cont
 10
287181
 20
6717415.94
  0
VERTEX
  8
cont
 10
287182.4
 20
6717417
  0
VERTEX
  8
cont
 10
287183
 20
6717417.82
  0
VERTEX
  8
cont
 10
287184.22
 20
6717419
  0
VERTEX
  8
cont
 10
287185
 20
6717419.38
  0
VERTEX
  8
cont
 10
287187
 20
6717419.08
  0
VERTEX
  8
cont
 10
287187.1
 20
6717418.88
  0
VERTEX
  8
cont
 10
287188.46
 20
6717415.52
  0
VERTEX
  8
cont
 10
287189
 20
6717414.54
  0
VERTEX
  8
cont
 10
287191
 20
6717413.9
  0
VERTEX
  8
cont
 10
287193
 20
6717413.04
  0
VERTEX
  8
cont
 10
287195
 20
6717412.36
  0
VERTEX
  8
cont
 10
287197
 20
6717412.88
  0
VERTEX
  8
cont
 10
287197.18
 20
6717413
  0
VERTEX
  8
cont
 10
287199
 20
6717414.14
  0
VERTEX
  8
cont
 10
287201
 20
6717414.88
  0
VERTEX
  8
cont
 10
287203
 20
6717414.32
  0
VERTEX
  8
cont
 10
287205
 20
6717414.7
  0
VERTEX
  8
cont
 10
287207
 20
6717414.08
  0
VERTEX
  8
cont
 10
287209
 20
6717414.88
  0
VERTEX
  8
cont
 10
287209.2
 20
6717415
  0
VERTEX
  8
cont
 10
287211
 20
6717415.72
  0
VERTEX
  8
cont
 10
287213
 20
6717416.82
  0
VERTEX
  8
cont
 10
287213.42
 20
6717417
  0
VERTEX
  8
cont
 10
287215
 20
6717417.32
  0
VERTEX
  8
cont
 10
287217
 20
6717416.46
  0
VERTEX
  8
cont
 10
287218.56
 20
6717417
  0
VERTEX
  8
cont
 10
287219
 20
6717417.12
  0
VERTEX
  8
cont
 10
287221
 20
6717416.5
  0
VERTEX
  8
cont
 10
287222.38
 20
6717417
  0
VERTEX
  8
cont
 10
287223
 20
6717417.18
  0
VERTEX
  8
cont
 10
287225
 20
6717417.26
  0
VERTEX
  8
cont
 10
287227
 20
6717417.12
  0
VERTEX
  8
cont
 10
287229
 20
6717416.24
  0
VERTEX
  8
cont
 10
287231
 20
6717415.2
  0
VERTEX
  8
cont
 10
287231.32
 20
6717414.66
  0
VERTEX
  8
cont
 10
287231.72
 20
6717412.26
  0
VERTEX
  8
cont
 10
287232.5
 20
6717409.48
  0
VERTEX
  8
cont
 10
287232.22
 20
6717407.76
  0
VERTEX
  8
cont
 10
287231.54
 20
6717406.44
  0
VERTEX
  8
cont
 10
287230.38
 20
6717405.6
  0
VERTEX
  8
cont
 10
287229.94
 20
6717404.04
  0
VERTEX
  8
cont
 10
287228.44
 20
6717403.54
  0
VERTEX
  8
cont
 10
287228.3
 20
6717401.68
  0
VERTEX
  8
cont
 10
287228.24
 20
6717399.74
  0
VERTEX
  8
cont
 10
287227.6
 20
6717398.38
  0
VERTEX
  8
cont
 10
287226.18
 20
6717397.8
  0
VERTEX
  8
cont
 10
287227
 20
6717396.26
  0
VERTEX
  8
cont
 10
287229
 20
6717395.32
  0
VERTEX
  8
cont
 10
287231
 20
6717394.74
  0
VERTEX
  8
cont
 10
287233
 20
6717394.1
  0
VERTEX
  8
cont
 10
287235
 20
6717394.54
  0
VERTEX
  8
cont
 10
287237
 20
6717393.14
  0
VERTEX
  8
cont
 10
287239
 20
6717392.44
  0
VERTEX
  8
cont
 10
287241
 20
6717391.16
  0
VERTEX
  8
cont
 10
287243
 20
6717390.16
  0
VERTEX
  8
cont
 10
287245
 20
6717389.74
  0
VERTEX
  8
cont
 10
287247
 20
6717389.56
  0
VERTEX
  8
cont
 10
287249
 20
6717389.26
  0
VERTEX
  8
cont
 10
287251
 20
6717389.76
  0
VERTEX
  8
cont
 10
287253
 20
6717389.58
  0
VERTEX
  8
cont
 10
287255
 20
6717389.24
  0
VERTEX
  8
cont
 10
287257
 20
6717389.08
  0
VERTEX
  8
cont
 10
287259
 20
6717388
  0
VERTEX
  8
cont
 10
287261
 20
6717386.62
  0
VERTEX
  8
cont
 10
287263
 20
6717384.22
  0
VERTEX
  8
cont
 10
287265
 20
6717383.7
  0
VERTEX
  8
cont
 10
287267
 20
6717382.76
  0
VERTEX
  8
cont
 10
287269
 20
6717382.42
  0
VERTEX
  8
cont
 10
287271
 20
6717381.34
  0
VERTEX
  8
cont
 10
287273
 20
6717380.4
  0
VERTEX
  8
cont
 10
287275
 20
6717380.12
  0
VERTEX
  8
cont
 10
287277
 20
6717380.08
  0
VERTEX
  8
cont
 10
287279
 20
6717379.72
  0
VERTEX
  8
cont
 10
287280.48
 20
6717379
  0
VERTEX
  8
cont
 10
287281
 20
6717378.66
  0
VERTEX
  8
cont
 10
287282.6
 20
6717377
  0
VERTEX
  8
cont
 10
287283
 20
6717376.4
  0
VERTEX
  8
cont
 10
287284.02
 20
6717375.96
  0
VERTEX
  8
cont
 10
287285
 20
6717375.94
  0
SEQEND
  0
POLYLINE
 66
1
  8
cont
  0
VERTEX
  8
cont
 10
287181
 20
6717350.34
  0
VERTEX
  8
cont
 10
287180.26
 20
6717351
  0
VERTEX
  8
cont
 10
287180.4
 20
6717351.58
  0
VERTEX
  8
cont
 10
287180.4
 20
6717353
  0
VERTEX
  8
cont
 10
287180.44
 20
6717353.54
  0
VERTEX
  8
cont
 10
287182.14
 20
6717353.84
  0
VERTEX
  8
cont
 10
287183.86
 20
6717354.12
  0
VERTEX
  8
cont
 10
287186.08
 20
6717353.9
  0
VERTEX
  8
cont
 10
287188.26
 20
6717353.72
  0
VERTEX
  8
cont
 10
287190.12
 20
6717353.86
  0
VERTEX
  8
cont
 10
287192.2
 20
6717353.78
  0
VERTEX
  8
cont
 10
287193.9
 20
6717353
  0
VERTEX
  8
cont
 10
287193.96
 20
6717351
  0
VERTEX
  8
cont
 10
287193
 20
6717350.06
  0
VERTEX
  8
cont
 10
287191.72
 20
6717349
  0
VERTEX
  8
cont
 10
287191
 20
6717348.48
  0
VERTEX
  8
cont
 10
287189
 20
6717348.56
  0
VERTEX
  8
cont
 10
287187
 20
6717348.4
  0
VERTEX
  8
cont
 10
287185.68
 20
6717348.3
  0
VERTEX
  8
cont
 10
287185
 20
6717348.26
  0
VERTEX
  8
cont
 10
287183.66
 20
6717348.32
  0
VERTEX
  8
cont
 10
287183
 20
6717348.38
  0
VERTEX
  8
cont
 10
287182.34
 20
6717349
  0
VERTEX
  8
cont
 10
287181
 20
6717350.34
  0
SEQEND
  0
POLYLINE
 66
1
  8
cont
  0
VERTEX
  8
cont
 10
287193
 20
6717389.58
  0
VERTEX
  8
cont
 10
287192.8
 20
6717391
  0
VERTEX
  8
cont
 10
287192.8
 20
6717391.18
  0
VERTEX
  8
cont
 10
287193
 20
6717391.2
  0
VERTEX
  8
cont
 10
287194.2
 20
6717391.78
  0
VERTEX
  8
cont
 10
287196.1
 20
6717391.88
  0
VERTEX
  8
cont
 10
287197.88
 20
6717392.1
  0
VERTEX
  8
cont
 10
287199.96
 20
6717392.02
  0
VERTEX
  8
cont
 10
287201.76
 20
6717391
  0
VERTEX
  8
cont
 10
287201.6
 20
6717389
  0
VERTEX
  8
cont
 10
287201
 20
6717388.2
  0
VERTEX
  8
cont
 10
287199.96
 20
6717387
  0
VERTEX
  8
cont
 10
287199.66
 20
6717385
  0
VERTEX
  8
cont
 10
287199
 20
6717384.46
  0
VERTEX
  8
cont
 10
287197
 20
6717384.42
  0
VERTEX
  8
cont
 10
287195
 20
6717384.92
  0
VERTEX
  8
cont
 10
287194.9
 20
6717385
  0
VERTEX
  8
cont
 10
287194.88
 20
6717385.1
  0
VERTEX
  8
cont
 10
287194.44
 20
6717387
  0
VERTEX
  8
cont
 10
287193.22
 20
6717388.76
  0
VERTEX
  8
cont
 10
287193.1
 20
6717389
  0
VERTEX
  8
cont
 10
287193
 20
6717389.58
  0
SEQEND
  0
POLYLINE
 66
1
  8
cont
  0
VERTEX
  8
cont
 10
287201
 20
6717346.06
  0
VERTEX
  8
cont
 10
287200.1
 20
6717347
  0
VERTEX
  8
cont
 10
287200.08
 20
6717347.9
  0
VERTEX
  8
cont
 10
287199.92
 20
6717349
  0
VERTEX
  8
cont
 10
287199.98
 20
6717350
  0
VERTEX
  8
cont
 10
287201.72
 20
6717350.26
  0
VERTEX
  8
cont
 10
287203.98
 20
6717350
  0
VERTEX
  8
cont
 10
287206.1
 20
6717349.88
  0
VERTEX
  8
cont
 10
287207.94
 20
6717349
  0
VERTEX
  8
cont
 10
287207.72
 20
6717347
  0
VERTEX
  8
cont
 10
287207
 20
6717346.3
  0
VERTEX
  8
cont
 10
287205.76
 20
6717346.22
  0
VERTEX
  8
cont
 10
287205
 20
6717346.18
  0
VERTEX
  8
cont
 10
287203.88
 20
6717346.1
  0
VERTEX
  8
cont
 10
287203
 20
6717346.06
  0
VERTEX
  8
cont
 10
287201.88
 20
6717346.1
  0
VERTEX
  8
cont
 10
287201
 20
6717346.06
  0
SEQEND
  0
POLYLINE
 66
1
  8
cont
  0
VERTEX
  8
cont
 10
287011
 20
6717445.6
  0
VERTEX
  8
cont
 10
287010.42
 20
6717447
  0
VERTEX
  8
cont
 10
287010.42
 20
6717447.56
  0
VERTEX
  8
cont
 10
287011
 20
6717448.54
  0
VERTEX
  8
cont
 10
287011.34
 20
6717448.64
  0
VERTEX
  8
cont
 10
287012.1
 20
6717449.88
  0
VERTEX
  8
cont
 10
287013.3
 20
6717450.68
  0
VERTEX
  8
cont
 10
287014.1
 20
6717451.88
  0
VERTEX
  8
cont
 10
287013.78
 20
6717454.2
  0
VERTEX
  8
cont
 10
287014.7
 20
6717455.28
  0
VERTEX
  8
cont
 10
287015.76
 20
6717456.22
  0
VERTEX
  8
cont
 10
287015.92
 20
6717458.06
  0
VERTEX
  8
cont
 10
287017.48
 20
6717458.5
  0
VERTEX
  8
cont
 10
287017.66
 20
6717460.32
  0
VERTEX
  8
cont
 10
287017.82
 20
6717462.16
  0
VERTEX
  8
cont
 10
287017.98
 20
6717464
  0
VERTEX
  8
cont
 10
287019.26
 20
6717464.72
  0
VERTEX
  8
cont
 10
287019.4
 20
6717466.58
  0
VERTEX
  8
cont
 10
287021.18
 20
6717466.8
  0
VERTEX
  8
cont
 10
287021.52
 20
6717468.46
  0
VERTEX
  8
cont
 10
287022.88
 20
6717469.1
  0
VERTEX
  8
cont
 10
287023.86
 20
6717470.12
  0
VERTEX
  8
cont
 10
287024.84
 20
6717471.14
  0
VERTEX
  8
cont
 10
287026.14
 20
6717471.84
  0
VERTEX
  8
cont
 10
287026.1
 20
6717473.88
  0
VERTEX
  8
cont
 10
287027.12
 20
6717474.86
  0
VERTEX
  8
cont
 10
287028.2
 20
6717475.78
  0
VERTEX
  8
cont
 10
287029.18
 20
6717476.8
  0
VERTEX
  8
cont
 10
287030.12
 20
6717477.86
  0
VERTEX
  8
cont
 10
287030.6
 20
6717479.38
  0
VERTEX
  8
cont
 10
287032.18
 20
6717479.8
  0
VERTEX
  8
cont
 10
287033.22
 20
6717480.76
  0
VERTEX
  8
cont
 10
287034.08
 20
6717481.9
  0
VERTEX
  8
cont
 10
287034.78
 20
6717483.2
  0
VERTEX
  8
cont
 10
287034.94
 20
6717485.04
  0
VERTEX
  8
cont
 10
287036.44
 20
6717485.54
  0
VERTEX
  8
cont
 10
287036.88
 20
6717487.1
  0
VERTEX
  8
cont
 10
287038.58
 20
6717487.4
  0
VERTEX
  8
cont
 10
287040.08
 20
6717487.9
  0
VERTEX
  8
cont
 10
287040.86
 20
6717489.12
  0
VERTEX
  8
cont
 10
287041.64
 20
6717490.34
  0
VERTEX
  8
cont
 10
287042.36
 20
6717491.62
  0
VERTEX
  8
cont
 10
287042.9
 20
6717493.08
  0
VERTEX
  8
cont
 10
287043.4
 20
6717494.58
  0
VERTEX
  8
cont
 10
287043.78
 20
6717496.2
  0
VERTEX
  8
cont
 10
287044.2
 20
6717497.78
  0
VERTEX
  8
cont
 10
287045.2
 20
6717498.78
  0
VERTEX
  8
cont
 10
287045.62
 20
6717500.36
  0
VERTEX
  8
cont
 10
287046.46
 20
6717501.52
  0
VERTEX
  8
cont
 10
287047.52
 20
6717502.46
  0
VERTEX
  8
cont
 10
287048.4
 20
6717503.58
  0
VERTEX
  8
cont
 10
287049.76
 20
6717504.22
  0
VERTEX
  8
cont
 10
287051.06
 20
6717504.92
  0
VERTEX
  8
cont
 10
287052.56
 20
6717505.42
  0
VERTEX
  8
cont
 10
287053.08
 20
6717506.9
  0
VERTEX
  8
cont
 10
287053.26
 20
6717508.72
  0
VERTEX
  8
cont
 10
287053.58
 20
6717510.4
  0
VERTEX
  8
cont
 10
287053
 20
6717511.5
  0
VERTEX
  8
cont
 10
287052.6
 20
6717513.38
  0
VERTEX
  8
cont
 10
287053.64
 20
6717514.34
  0
VERTEX
  8
cont
 10
287054.04
 20
6717515.94
  0
VERTEX
  8
cont
 10
287055.2
 20
6717516.78
  0
VERTEX
  8
cont
 10
287056.22
 20
6717517.76
  0
VERTEX
  8
cont
 10
287056.52
 20
6717519.46
  0
VERTEX
  8
cont
 10
287056.54
 20
6717521.44
  0
VERTEX
  8
cont
 10
287057.38
 20
6717522.6
  0
VERTEX
  8
cont
 10
287058.14
 20
6717523.84
  0
VERTEX
  8
cont
 10
287058.72
 20
6717525.26
  0
VERTEX
  8
cont
 10
287059.98
 20
6717526
  0
VERTEX
  8
cont
 10
287060.9
 20
6717527.08
  0
VERTEX
  8
cont
 10
287062.86
 20
6717527.12
  0
VERTEX
  8
cont
 10
287064.4
 20
6717527.58
  0
VERTEX
  8
cont
 10
287064.76
 20
6717529.22
  0
VERTEX
  8
cont
 10
287066.08
 20
6717529.9
  0
VERTEX
  8
cont
 10
287067.22
 20
6717530.76
  0
VERTEX
  8
cont
 10
287068
 20
6717531
  0
VERTEX
  8
cont
 10
287068.78
 20
6717531.2
  0
VERTEX
  8
cont
 10
287069
 20
6717531.78
  0
VERTEX
  8
cont
 10
287069.66
 20
6717532.32
  0
VERTEX
  8
cont
 10
287069.98
 20
6717533
  0
VERTEX
  8
cont
 10
287069
 20
6717533.74
  0
VERTEX
  8
cont
 10
287068.62
 20
6717535
  0
SEQEND
  0
POLYLINE
 66
1
  8
cont
  0
VERTEX
  8
cont
 10
287011
 20
6717445.6
  0
VERTEX
  8
cont
 10
287012.54
 20
6717445.44
  0
VERTEX
  8
cont
 10
287013
 20
6717445.34
  0
VERTEX
  8
cont
 10
287013.78
 20
6717445
  0
VERTEX
  8
cont
 10
287015
 20
6717444.46
  0
VERTEX
  8
cont
 10
287017
 20
6717443.8
  0
VERTEX
  8
cont
 10
287019
 20
6717441.46
  0
VERTEX
  8
cont
 10
287019.86
 20
6717440.12
  0
VERTEX
  8
cont
 10
287021
 20
6717438.44
  0
VERTEX
  8
cont
 10
287023
 20
6717438.18
  0
VERTEX
  8
cont
 10
287025
 20
6717437.48
  0
VERTEX
  8
cont
 10
287025.82
 20
6717436.16
  0
VERTEX
  8
cont
 10
287026.62
 20
6717433.36
  0
VERTEX
  8
cont
 10
287027
 20
6717432.64
  0
VERTEX
  8
cont
 10
287028.22
 20
6717429.76
  0
VERTEX
  8
cont
 10
287029
 20
6717428.44
  0
VERTEX
  8
cont
 10
287031
 20
6717426.64
  0
VERTEX
  8
cont
 10
287033
 20
6717425.9
  0
VERTEX
  8
cont
 10
287035
 20
6717424.62
  0
VERTEX
  8
cont
 10
287037
 20
6717421.32
  0
VERTEX
  8
cont
 10
287037.48
 20
6717420.5
  0
VERTEX
  8
cont
 10
287037.28
 20
6717418.7
  0
VERTEX
  8
cont
 10
287038.08
 20
6717415.9
  0
VERTEX
  8
cont
 10
287038.32
 20
6717413.66
  0
VERTEX
  8
cont
 10
287039
 20
6717412.7
  0
VERTEX
  8
cont
 10
287041
 20
6717412.7
  0
VERTEX
  8
cont
 10
287043
 20
6717411.98
  0
VERTEX
  8
cont
 10
287045
 20
6717411.02
  0
VERTEX
  8
cont
 10
287047
 20
6717410.44
  0
VERTEX
  8
cont
 10
287049
 20
6717410.88
  0
VERTEX
  8
cont
 10
287050.5
 20
6717411
  0
VERTEX
  8
cont
 10
287051
 20
6717411.04
  0
VERTEX
  8
cont
 10
287053
 20
6717411.04
  0
VERTEX
  8
cont
 10
287055
 20
6717411.12
  0
VERTEX
  8
cont
 10
287057
 20
6717411.04
  0
VERTEX
  8
cont
 10
287059
 20
6717411.32
  0
VERTEX
  8
cont
 10
287061
 20
6717411.52
  0
VERTEX
  8
cont
 10
287063
 20
6717411.3
  0
VERTEX
  8
cont
 10
287065
 20
6717411.58
  0
VERTEX
  8
cont
 10
287067
 20
6717412.06
  0
VERTEX
  8
cont
 10
287069
 20
6717412.04
  0
VERTEX
  8
cont
 10
287069.84
 20
6717413
  0
VERTEX
  8
cont
 10
287071
 20
6717413.42
  0
VERTEX
  8
cont
 10
287073
 20
6717413.3
  0
VERTEX
  8
cont
 10
287075
 20
6717414.48
  0
VERTEX
  8
cont
 10
287076.7
 20
6717415
  0
VERTEX
  8
cont
 10
287077
 20
6717415.06
  0
VERTEX
  8
cont
 10
287079
 20
6717416.2
  0
VERTEX
  8
cont
 10
287081
 20
6717416.3
  0
VERTEX
  8
cont
 10
287083
 20
6717416.12
  0
VERTEX
  8
cont
 10
287084.18
 20
6717417
  0
VERTEX
  8
cont
 10
287084.78
 20
6717419
  0
VERTEX
  8
cont
 10
287085
 20
6717419.16
  0
VERTEX
  8
cont
 10
287087
 20
6717419.46
  0
VERTEX
  8
cont
 10
287089
 20
6717420.5
  0
VERTEX
  8
cont
 10
287089.66
 20
6717421
  0
VERTEX
  8
cont
 10
287091
 20
6717421.26
  0
VERTEX
  8
cont
 10
287093
 20
6717419.66
  0
VERTEX
  8
cont
 10
287094.14
 20
6717421
  0
VERTEX
  8
cont
 10
287095
 20
6717421.86
  0
VERTEX
  8
cont
 10
287097
 20
6717421.98
  0
VERTEX
  8
cont
 10
287098.64
 20
6717423
  0
VERTEX
  8
cont
 10
287099
 20
6717423.4
  0
VERTEX
  8
cont
 10
287100.16
 20
6717421.82
  0
VERTEX
  8
cont
 10
287101
 20
6717420.58
  0
VERTEX
  8
cont
 10
287103
 20
6717419.12
  0
VERTEX
  8
cont
 10
287103.54
 20
6717418.44
  0
VERTEX
  8
cont
 10
287105
 20
6717415.54
  0
VERTEX
  8
cont
 10
287107
 20
6717415.88
  0
VERTEX
  8
cont
 10
287109
 20
6717415.2
  0
VERTEX
  8
cont
 10
287111
 20
6717415.22
  0
VERTEX
  8
cont
 10
287113
 20
6717415.38
  0
VERTEX
  8
cont
 10
287115
 20
6717415.86
  0
VERTEX
  8
cont
 10
287115.98
 20
6717414
  0
VERTEX
  8
cont
 10
287114.2
 20
6717413.78
  0
VERTEX
  8
cont
 10
287115
 20
6717412.18
  0
VERTEX
  8
cont
 10
287117
 20
6717411.92
  0
VERTEX
  8
cont
 10
287118.46
 20
6717413
  0
VERTEX
  8
cont
 10
287119
 20
6717413.3
  0
VERTEX
  8
cont
 10
287121
 20
6717414.54
  0
VERTEX
  8
cont
 10
287122.2
 20
6717415
  0
VERTEX
  8
cont
 10
287123
 20
6717415.22
  0
VERTEX
  8
cont
 10
287125
 20
6717415.18
  0
VERTEX
  8
cont
 10
287127
 20
6717415.26
  0
VERTEX
  8
cont
 10
287129
 20
6717414.4
  0
VERTEX
  8
cont
 10
287131
 20
6717414.12
  0
VERTEX
  8
cont
 10
287133
 20
6717412.7
  0
VERTEX
  8
cont
 10
287133.38
 20
6717413
  0
VERTEX
  8
cont
 10
287135
 20
6717414.4
  0
VERTEX
  8
cont
 10
287137
 20
6717413.68
  0
VERTEX
  8
cont
 10
287139
 20
6717412.9
  0
VERTEX
  8
cont
 10
287141
 20
6717412.18
  0
VERTEX
  8
cont
 10
287143
 20
6717412.9
  0
VERTEX
  8
cont
 10
287143.12
 20
6717413
  0
VERTEX
  8
cont
 10
287145
 20
6717413.68
  0
VERTEX
  8
cont
 10
287147
 20
6717413.2
  0
VERTEX
  8
cont
 10
287149
 20
6717413.18
  0
VERTEX
  8
cont
 10
287151
 20
6717412.56
  0
VERTEX
  8
cont
 10
287152.44
 20
6717413
  0
VERTEX
  8
cont
 10
287153
 20
6717413.24
  0
VERTEX
  8
cont
 10
287155
 20
6717413.6
  0
VERTEX
  8
cont
 10
287157
 20
6717413.9
  0
VERTEX
  8
cont
 10
287159
 20
6717414.02
  0
VERTEX
  8
cont
 10
287161
 20
6717414.82
  0
VERTEX
  8
cont
 10
287161.46
 20
6717415
  0
VERTEX
  8
cont
 10
287163
 20
6717415.82
  0
VERTEX
  8
cont
 10
287164.06
 20
6717417
  0
VERTEX
  8
cont
 10
287165
 20
6717417.74
  0
VERTEX
  8
cont
 10
287166.24
 20
6717419
  0
VERTEX
  8
cont
 10
287166.9
 20
6717421
  0
VERTEX
  8
cont
 10
287167
 20
6717421.3
  0
VERTEX
  8
cont
 10
287167.98
 20
6717423
  0
VERTEX
  8
cont
 10
287166.62
 20
6717425
  0
VERTEX
  8
cont
 10
287167
 20
6717426.68
  0
VERTEX
  8
cont
 10
287168
 20
6717427
  0
VERTEX
  8
cont
 10
287169
 20
6717427.44
  0
VERTEX
  8
cont
 10
287171
 20
6717425.96
  0
VERTEX
  8
cont
 10
287173
 20
6717423.68
  0
VERTEX
  8
cont
 10
287175
 20
6717423.42
  0
VERTEX
  8
cont
 10
287175.44
 20
6717425
  0
VERTEX
  8
cont
 10
287175.92
 20
6717427
  0
VERTEX
  8
cont
 10
287174.54
 20
6717429
  0
VERTEX
  8
cont
 10
287174.12
 20
6717431
  0
VERTEX
  8
cont
 10
287175
 20
6717431.3
  0
VERTEX
  8
cont
 10
287177
 20
6717430.64
  0
VERTEX
  8
cont
 10
287179
 20
6717428.68
  0
VERTEX
  8
cont
 10
287181
 20
6717428.62
  0
VERTEX
  8
cont
 10
287183
 20
6717428.82
  0
VERTEX
  8
cont
 10
287185
 20
6717427.52
  0
VERTEX
  8
cont
 10
287187
 20
6717426.42
  0
VERTEX
  8
cont
 10
287189
 20
6717425.92
  0
VERTEX
  8
cont
 10
287191
 20
6717424.58
  0
VERTEX
  8
cont
 10
287193
 20
6717422.76
  0
VERTEX
  8
cont
 10
287194.02
 20
6717423
  0
VERTEX
  8
cont
 10
287195
 20
6717423.14
  0
VERTEX
  8
cont
 10
287197
 20
6717423.08
  0
VERTEX
  8
cont
 10
287199
 20
6717422.4
  0
VERTEX
  8
cont
 10
287201
 20
6717422.26
  0
VERTEX
  8
cont
 10
287203
 20
6717422.38
  0
VERTEX
  8
cont
 10
287205
 20
6717422.82
  0
VERTEX
  8
cont
 10
287205.44
 20
6717423
  0
VERTEX
  8
cont
 10
287207
 20
6717423.88
  0
VERTEX
  8
cont
 10
287208.68
 20
6717425
  0
VERTEX
  8
cont
 10
287209
 20
6717425.48
  0
VERTEX
  8
cont
 10
287211
 20
6717426.74
  0
VERTEX
  8
cont
 10
287211.46
 20
6717427
  0
VERTEX
  8
cont
 10
287213
 20
6717427.94
  0
VERTEX
  8
cont
 10
287215
 20
6717428.7
  0
VERTEX
  8
cont
 10
287217
 20
6717428.74
  0
VERTEX
  8
cont
 10
287219
 20
6717428.48
  0
VERTEX
  8
cont
 10
287221
 20
6717426.26
  0
VERTEX
  8
cont
 10
287223
 20
6717424.9
  0
VERTEX
  8
cont
 10
287225
 20
6717424.26
  0
VERTEX
  8
cont
 10
287227
 20
6717424
  0
VERTEX
  8
cont
 10
287229
 20
6717424.54
  0
VERTEX
  8
cont
 10
287231
 20
6717424.16
  0
VERTEX
  8
cont
 10
287233
 20
6717423.56
  0
VERTEX
  8
cont
 10
287235
 20
6717423.8
  0
VERTEX
  8
cont
 10
287237
 20
6717424
  0
VERTEX
  8
cont
 10
287239
 20
6717423.68
  0
VERTEX
  8
cont
 10
287241
 20
6717422.72
  0
VERTEX
  8
cont
 10
287243
 20
6717422.42
  0
VERTEX
  8
cont
 10
287245
 20
6717420.44
  0
VERTEX
  8
cont
 10
287247
 20
6717419.22
  0
VERTEX
  8
cont
 10
287249
 20
6717417.7
  0
VERTEX
  8
cont
 10
287251
 20
6717415.96
  0
VERTEX
  8
cont
 10
287253
 20
6717414.48
  0
VERTEX
  8
cont
 10
287255
 20
6717412.22
  0
VERTEX
  8
cont
 10
287257
 20
6717411.36
  0
VERTEX
  8
cont
 10
287259
 20
6717410.68
  0
VERTEX
  8
cont
 10
287261
 20
6717409.44
  0
VERTEX
  8
cont
 10
287263
 20
6717407.46
  0
VERTEX
  8
cont
 10
287265
 20
6717406.6
  0
VERTEX
  8
cont
 10
287267
 20
6717405.76
  0
VERTEX
  8
cont
 10
287269
 20
6717404.36
  0
VERTEX
  8
cont
 10
287270.7
 20
6717401.28
  0
VERTEX
  8
cont
 10
287269.94
 20
6717400.04
  0
VERTEX
  8
cont
 10
287268.82
 20
6717399.16
  0
VERTEX
  8
cont
 10
287267.6
 20
6717398.38
  0
VERTEX
  8
cont
 10
287266.34
 20
6717397.64
  0
VERTEX
  8
cont
 10
287264.4
 20
6717397.58
  0
VERTEX
  8
cont
 10
287262.42
 20
6717397.56
  0
VERTEX
  8
cont
 10
287262
 20
6717396
  0
VERTEX
  8
cont
 10
287263
 20
6717394.84
  0
VERTEX
  8
cont
 10
287265
 20
6717394.7
  0
VERTEX
  8
cont
 10
287267
 20
6717392.66
  0
VERTEX
  8
cont
 10
287269
 20
6717390.48
  0
VERTEX
  8
cont
 10
287271
 20
6717388.86
  0
VERTEX
  8
cont
 10
287273
 20
6717387.84
  0
VERTEX
  8
cont
 10
287275
 20
6717387.28
  0
VERTEX
  8
cont
 10
287277
 20
6717386.56
  0
VERTEX
  8
cont
 10
287279
 20
6717385.52
  0
VERTEX
  8
cont
 10
287280.32
 20
6717385
  0
VERTEX
  8
cont
 10
287281
 20
6717384.76
  0
VERTEX
  8
cont
 10
287281.26
 20
6717384.72
  0
VERTEX
  8
cont
 10
287283
 20
6717384.36
  0
VERTEX
  8
cont
 10
287283.68
 20
6717384.3
  0
VERTEX
  8
cont
 10
287285
 20
6717384.5
  0
SEQEND
  0
POLYLINE
 66
1
  8
cont
  0
VERTEX
  8
cont
 10
287019
 20
6717432.92
  0
VERTEX
  8
cont
 10
287018.9
 20
6717433
  0
VERTEX
  8
cont
 10
287018.8
 20
6717433.18
  0
VERTEX
  8
cont
 10
287019
 20
6717433.36
  0
VERTEX
  8
cont
 10
287019.06
 20
6717433
  0
VERTEX
  8
cont
 10
287019.06
 20
6717432.92
  0
VERTEX
  8
cont
 10
287019
 20
6717432.92
  0
SEQEND
  0
POLYLINE
 66
1
  8
cont
  0
VERTEX
  8
cont
 10
287105
 20
6717408.54
  0
VERTEX
  8
cont
 10
287103.82
 20
6717409
  0
VERTEX
  8
cont
 10
287103.76
 20
6717410.22
  0
VERTEX
  8
cont
 10
287105
 20
6717410.22
  0
VERTEX
  8
cont
 10
287106.22
 20
6717409
  0
VERTEX
  8
cont
 10
287105.44
 20
6717408.54
  0
VERTEX
  8
cont
 10
287105
 20
6717408.54
  0
SEQEND
  0
POLYLINE
 66
1
  8
cont
  0
VERTEX
  8
cont
 10
287257
 20
6717394.28
  0
VERTEX
  8
cont
 10
287255.84
 20
6717395
  0
VERTEX
  8
cont
 10
287255.84
 20
6717396.14
  0
VERTEX
  8
cont
 10
287255.42
 20
6717397
  0
VERTEX
  8
cont
 10
287255.86
 20
6717398.12
  0
VERTEX
  8
cont
 10
287256.2
 20
6717399.78
  0
VERTEX
  8
cont
 10
287258.42
 20
6717399.56
  0
VERTEX
  8
cont
 10
287259.2
 20
6717399
  0
VERTEX
  8
cont
 10
287260.76
 20
6717397
  0
VERTEX
  8
cont
 10
287260.76
 20
6717395.22
  0
VERTEX
  8
cont
 10
287260.56
 20
6717395
  0
VERTEX
  8
cont
 10
287259.3
 20
6717394.7
  0
VERTEX
  8
cont
 10
287259
 20
6717394.52
  0
VERTEX
  8
cont
 10
287257.2
 20
6717394.78
  0
VERTEX
  8
cont
 10
287257
 20
6717394.28
  0
SEQEND
  0
POLYLINE
 66
1
  8
cont
  0
VERTEX
  8
cont
 10
287021
 20
6717448.86
  0
VERTEX
  8
cont
 10
287020.88
 20
6717449
  0
VERTEX
  8
cont
 10
287020.82
 20
6717449.16
  0
VERTEX
  8
cont
 10
287020.82
 20
6717451
  0
VERTEX
  8
cont
 10
287020.64
 20
6717451.34
  0
VERTEX
  8
cont
 10
287021.36
 20
6717452.62
  0
VERTEX
  8
cont
 10
287021
 20
6717454
  0
VERTEX
  8
cont
 10
287020.92
 20
6717455.06
  0
VERTEX
  8
cont
 10
287021.44
 20
6717455
  0
VERTEX
  8
cont
 10
287023.68
 20
6717454.3
  0
VERTEX
  8
cont
 10
287024.76
 20
6717455.22
  0
VERTEX
  8
cont
 10
287025.56
 20
6717456.42
  0
VERTEX
  8
cont
 10
287026.02
 20
6717457.96
  0
VERTEX
  8
cont
 10
287026.68
 20
6717459.3
  0
VERTEX
  8
cont
 10
287027.5
 20
6717460.48
  0
VERTEX
  8
cont
 10
287028.6
 20
6717461.38
  0
VERTEX
  8
cont
 10
287029.88
 20
6717462.1
  0
VERTEX
  8
cont
 10
287030.24
 20
6717463.74
  0
VERTEX
  8
cont
 10
287030.54
 20
6717465.44
  0
VERTEX
  8
cont
 10
287030.66
 20
6717467.32
  0
VERTEX
  8
cont
 10
287031.54
 20
6717468.44
  0
VERTEX
  8
cont
 10
287032.2
 20
6717469.78
  0
VERTEX
  8
cont
 10
287033.54
 20
6717470.44
  0
VERTEX
  8
cont
 10
287034.46
 20
6717471.52
  0
VERTEX
  8
cont
 10
287034.86
 20
6717473.12
  0
VERTEX
  8
cont
 10
287035.94
 20
6717474.04
  0
VERTEX
  8
cont
 10
287036.32
 20
6717475.66
  0
VERTEX
  8
cont
 10
287036.76
 20
6717477.22
  0
VERTEX
  8
cont
 10
287038.08
 20
6717477.9
  0
VERTEX
  8
cont
 10
287039.74
 20
6717478.24
  0
VERTEX
  8
cont
 10
287041.22
 20
6717478.76
  0
VERTEX
  8
cont
 10
287042.66
 20
6717479.32
  0
VERTEX
  8
cont
 10
287043.38
 20
6717480.6
  0
VERTEX
  8
cont
 10
287044.2
 20
6717481.78
  0
VERTEX
  8
cont
 10
287044.78
 20
6717483.2
  0
VERTEX
  8
cont
 10
287046.42
 20
6717483.56
  0
VERTEX
  8
cont
 10
287047.22
 20
6717484.76
  0
VERTEX
  8
cont
 10
287048.68
 20
6717485.3
  0
VERTEX
  8
cont
 10
287050.04
 20
6717485.94
  0
VERTEX
  8
cont
 10
287051.36
 20
6717486.62
  0
VERTEX
  8
cont
 10
287052.22
 20
6717487.76
  0
VERTEX
  8
cont
 10
287053.16
 20
6717488.82
  0
VERTEX
  8
cont
 10
287053.9
 20
6717490.08
  0
VERTEX
  8
cont
 10
287054.72
 20
6717491.26
  0
VERTEX
  8
cont
 10
287055.56
 20
6717492.42
  0
VERTEX
  8
cont
 10
287055.48
 20
6717494.5
  0
VERTEX
  8
cont
 10
287055
 20
6717495.32
  0
VERTEX
  8
cont
 10
287053
 20
6717496.72
  0
VERTEX
  8
cont
 10
287052.88
 20
6717497.1
  0
VERTEX
  8
cont
 10
287052.9
 20
6717499.08
  0
VERTEX
  8
cont
 10
287053.92
 20
6717500.06
  0
VERTEX
  8
cont
 10
287054.9
 20
6717501.08
  0
VERTEX
  8
cont
 10
287055.5
 20
6717502.48
  0
VERTEX
  8
cont
 10
287056.68
 20
6717503.3
  0
VERTEX
  8
cont
 10
287058.32
 20
6717503.66
  0
VERTEX
  8
cont
 10
287059.28
 20
6717504.7
  0
VERTEX
  8
cont
 10
287060.32
 20
6717505.66
  0
VERTEX
  8
cont
 10
287060.9
 20
6717507.08
  0
VERTEX
  8
cont
 10
287061.4
 20
6717508.58
  0
VERTEX
  8
cont
 10
287061.62
 20
6717510.36
  0
VERTEX
  8
cont
 10
287062
 20
6717511.98
  0
VERTEX
  8
cont
 10
287062.88
 20
6717513.1
  0
VERTEX
  8
cont
 10
287064.66
 20
6717513.32
  0
VERTEX
  8
cont
 10
287065.56
 20
6717514.42
  0
VERTEX
  8
cont
 10
287066.74
 20
6717515.24
  0
VERTEX
  8
cont
 10
287067.6
 20
6717516.38
  0
VERTEX
  8
cont
 10
287068.6
 20
6717517.38
  0
VERTEX
  8
cont
 10
287069.1
 20
6717518.88
  0
VERTEX
  8
cont
 10
287069.62
 20
6717520.36
  0
VERTEX
  8
cont
 10
287070.38
 20
6717521.6
  0
VERTEX
  8
cont
 10
287071.66
 20
6717521
  0
VERTEX
  8
cont
 10
287074.88
 20
6717519
  0
VERTEX
  8
cont
 10
287075.14
 20
6717518.84
  0
VERTEX
  8
cont
 10
287077.06
 20
6717518.92
  0
VERTEX
  8
cont
 10
287079.56
 20
6717518.42
  0
VERTEX
  8
cont
 10
287081.54
 20
6717518.44
  0
VERTEX
  8
cont
 10
287083.4
 20
6717518.58
  0
VERTEX
  8
cont
 10
287085.1
 20
6717518.88
  0
VERTEX
  8
cont
 10
287086.64
 20
6717519.34
  0
VERTEX
  8
cont
 10
287087.72
 20
6717520.26
  0
VERTEX
  8
cont
 10
287088.44
 20
6717521.54
  0
VERTEX
  8
cont
 10
287089.28
 20
6717522.7
  0
VERTEX
  8
cont
 10
287089.74
 20
6717524.24
  0
VERTEX
  8
cont
 10
287089
 20
6717526
  0
VERTEX
  8
cont
 10
287088.72
 20
6717527.26
  0
VERTEX
  8
cont
 10
287090.36
 20
6717527.62
  0
VERTEX
  8
cont
 10
287091.72
 20
6717528.26
  0
VERTEX
  8
cont
 10
287092.62
 20
6717529.36
  0
VERTEX
  8
cont
 10
287093.76
 20
6717530.22
  0
VERTEX
  8
cont
 10
287096
 20
6717529.98
  0
VERTEX
  8
cont
 10
287096.68
 20
6717531.3
  0
VERTEX
  8
cont
 10
287098
 20
6717531
  0
VERTEX
  8
cont
 10
287100
 20
6717530
  0
VERTEX
  8
cont
 10
287102
 20
6717529
  0
VERTEX
  8
cont
 10
287103.76
 20
6717528.22
  0
VERTEX
  8
cont
 10
287105.98
 20
6717528
  0
VERTEX
  8
cont
 10
287108.12
 20
6717527.86
  0
VERTEX
  8
cont
 10
287109.88
 20
6717528.1
  0
VERTEX
  8
cont
 10
287111.48
 20
6717528.5
  0
VERTEX
  8
cont
 10
287112.54
 20
6717529.44
  0
VERTEX
  8
cont
 10
287113
 20
6717530
  0
VERTEX
  8
cont
 10
287113.56
 20
6717530.42
  0
VERTEX
  8
cont
 10
287113.7
 20
6717531
  0
VERTEX
  8
cont
 10
287114.04
 20
6717531.94
  0
VERTEX
  8
cont
 10
287114.12
 20
6717533
  0
VERTEX
  8
cont
 10
287113.76
 20
6717534.22
  0
VERTEX
  8
cont
 10
287113.76
 20
6717535
  0
SEQEND
  0
POLYLINE
 66
1
  8
cont
  0
VERTEX
  8
cont
 10
287021
 20
6717448.86
  0
VERTEX
  8
cont
 10
287021.34
 20
6717448.64
  0
VERTEX
  8
cont
 10
287023
 20
6717448.04
  0
VERTEX
  8
cont
 10
287023.7
 20
6717447
  0
VERTEX
  8
cont
 10
287025
 20
6717445.2
  0
VERTEX
  8
cont
 10
287025.1
 20
6717444.88
  0
VERTEX
  8
cont
 10
287026.76
 20
6717441.22
  0
VERTEX
  8
cont
 10
287027
 20
6717440.82
  0
VERTEX
  8
cont
 10
287029
 20
6717439.46
  0
VERTEX
  8
cont
 10
287030.52
 20
6717437.46
  0
VERTEX
  8
cont
 10
287030.68
 20
6717435.3
  0
VERTEX
  8
cont
 10
287031
 20
6717434.58
  0
VERTEX
  8
cont
 10
287033
 20
6717434.14
  0
VERTEX
  8
cont
 10
287035
 20
6717433.4
  0
VERTEX
  8
cont
 10
287037
 20
6717431.64
  0
VERTEX
  8
cont
 10
287039
 20
6717431.66
  0
VERTEX
  8
cont
 10
287041
 20
6717432.2
  0
VERTEX
  8
cont
 10
287043
 20
6717432.36
  0
VERTEX
  8
cont
 10
287044.64
 20
6717433
  0
VERTEX
  8
cont
 10
287045
 20
6717433.18
  0
VERTEX
  8
cont
 10
287045.32
 20
6717432.66
  0
VERTEX
  8
cont
 10
287045.82
 20
6717430.16
  0
VERTEX
  8
cont
 10
287045.66
 20
6717428.32
  0
VERTEX
  8
cont
 10
287044.88
 20
6717427.1
  0
VERTEX
  8
cont
 10
287043.6
 20
6717426.38
  0
VERTEX
  8
cont
 10
287042.16
 20
6717425.82
  0
VERTEX
  8
cont
 10
287041.28
 20
6717424.7
  0
VERTEX
  8
cont
 10
287040.64
 20
6717423.34
  0
VERTEX
  8
cont
 10
287041
 20
6717421.64
  0
VERTEX
  8
cont
 10
287041.2
 20
6717420.78
  0
VERTEX
  8
cont
 10
287040.52
 20
6717419.46
  0
VERTEX
  8
cont
 10
287040.78
 20
6717417.2
  0
VERTEX
  8
cont
 10
287041
 20
6717416.72
  0
VERTEX
  8
cont
 10
287043
 20
6717414.56
  0
VERTEX
  8
cont
 10
287045
 20
6717412.8
  0
VERTEX
  8
cont
 10
287046.28
 20
6717413
  0
VERTEX
  8
cont
 10
287047
 20
6717413.26
  0
VERTEX
  8
cont
 10
287049
 20
6717413.24
  0
VERTEX
  8
cont
 10
287051
 20
6717413.74
  0
VERTEX
  8
cont
 10
287053
 20
6717413.66
  0
VERTEX
  8
cont
 10
287055
 20
6717413.08
  0
VERTEX
  8
cont
 10
287056.76
 20
6717415
  0
VERTEX
  8
cont
 10
287057
 20
6717415.18
  0
VERTEX
  8
cont
 10
287059
 20
6717415.22
  0
VERTEX
  8
cont
 10
287061
 20
6717414.76
  0
VERTEX
  8
cont
 10
287063
 20
6717414.86
  0
VERTEX
  8
cont
 10
287064.02
 20
6717415
  0
VERTEX
  8
cont
 10
287065
 20
6717415.08
  0
VERTEX
  8
cont
 10
287067
 20
6717414.8
  0
VERTEX
  8
cont
 10
287069
 20
6717414.54
  0
VERTEX
  8
cont
 10
287071
 20
6717414.8
  0
VERTEX
  8
cont
 10
287073
 20
6717414.94
  0
VERTEX
  8
cont
 10
287073.08
 20
6717415
  0
VERTEX
  8
cont
 10
287075
 20
6717416.1
  0
VERTEX
  8
cont
 10
287077
 20
6717416.4
  0
VERTEX
  8
cont
 10
287077.98
 20
6717417
  0
VERTEX
  8
cont
 10
287079
 20
6717417.78
  0
VERTEX
  8
cont
 10
287081
 20
6717418.94
  0
VERTEX
  8
cont
 10
287081.16
 20
6717419
  0
VERTEX
  8
cont
 10
287083
 20
6717419.34
  0
VERTEX
  8
cont
 10
287084.96
 20
6717421
  0
VERTEX
  8
cont
 10
287085
 20
6717421.06
  0
VERTEX
  8
cont
 10
287087
 20
6717422.88
  0
VERTEX
  8
cont
 10
287087.52
 20
6717423
  0
VERTEX
  8
cont
 10
287089
 20
6717423.22
  0
VERTEX
  8
cont
 10
287091
 20
6717422.74
  0
VERTEX
  8
cont
 10
287093
 20
6717422.44
  0
VERTEX
  8
cont
 10
287093.5
 20
6717423
  0
VERTEX
  8
cont
 10
287095
 20
6717423.96
  0
VERTEX
  8
cont
 10
287096.72
 20
6717425
  0
VERTEX
  8
cont
 10
287097
 20
6717425.16
  0
VERTEX
  8
cont
 10
287099
 20
6717426.68
  0
VERTEX
  8
cont
 10
287100
 20
6717427
  0
VERTEX
  8
cont
 10
287101
 20
6717427.68
  0
VERTEX
  8
cont
 10
287103
 20
6717428.68
  0
VERTEX
  8
cont
 10
287103.46
 20
6717429
  0
VERTEX
  8
cont
 10
287105
 20
6717430.06
  0
VERTEX
  8
cont
 10
287107
 20
6717430.58
  0
VERTEX
  8
cont
 10
287108.86
 20
6717427.12
  0
VERTEX
  8
cont
 10
287109
 20
6717426
  0
VERTEX
  8
cont
 10
287111
 20
6717424.1
  0
VERTEX
  8
cont
 10
287112.32
 20
6717425
  0
VERTEX
  8
cont
 10
287113
 20
6717425.46
  0
VERTEX
  8
cont
 10
287115
 20
6717425.98
  0
VERTEX
  8
cont
 10
287117
 20
6717424.88
  0
VERTEX
  8
cont
 10
287118
 20
6717425
  0
VERTEX
  8
cont
 10
287119
 20
6717425.1
  0
VERTEX
  8
cont
 10
287121
 20
6717425.3
  0
VERTEX
  8
cont
 10
287123
 20
6717426.14
  0
VERTEX
  8
cont
 10
287125
 20
6717426.02
  0
VERTEX
  8
cont
 10
287127
 20
6717426.54
  0
VERTEX
  8
cont
 10
287129
 20
6717426.82
  0
VERTEX
  8
cont
 10
287129.58
 20
6717427
  0
VERTEX
  8
cont
 10
287131
 20
6717427.36
  0
VERTEX
  8
cont
 10
287133
 20
6717428.54
  0
VERTEX
  8
cont
 10
287135
 20
6717428.88
  0
VERTEX
  8
cont
 10
287135.36
 20
6717429
  0
VERTEX
  8
cont
 10
287137
 20
6717429.98
  0
VERTEX
  8
cont
 10
287139
 20
6717430.32
  0
VERTEX
  8
cont
 10
287141
 20
6717430.32
  0
VERTEX
  8
cont
 10
287141.44
 20
6717428.54
  0
VERTEX
  8
cont
 10
287140.28
 20
6717427.7
  0
VERTEX
  8
cont
 10
287139.92
 20
6717426.06
  0
VERTEX
  8
cont
 10
287141
 20
6717423.2
  0
VERTEX
  8
cont
 10
287143
 20
6717421.38
  0
VERTEX
  8
cont
 10
287145
 20
6717420.52
  0
VERTEX
  8
cont
 10
287147
 20
6717419.32
  0
VERTEX
  8
cont
 10
287149
 20
6717418.68
  0
VERTEX
  8
cont
 10
287150.24
 20
6717419
  0
VERTEX
  8
cont
 10
287151
 20
6717419.2
  0
VERTEX
  8
cont
 10
287153
 20
6717418.36
  0
VERTEX
  8
cont
 10
287154.1
 20
6717419
  0
VERTEX
  8
cont
 10
287155
 20
6717419.66
  0
VERTEX
  8
cont
 10
287157
 20
6717419.46
  0
VERTEX
  8
cont
 10
287159
 20
6717420.26
  0
VERTEX
  8
cont
 10
287161
 20
6717419.62
  0
VERTEX
  8
cont
 10
287162.34
 20
6717421
  0
VERTEX
  8
cont
 10
287161.6
 20
6717423
  0
VERTEX
  8
cont
 10
287159.9
 20
6717425
  0
VERTEX
  8
cont
 10
287159.74
 20
6717427
  0
VERTEX
  8
cont
 10
287158.42
 20
6717427.56
  0
VERTEX
  8
cont
 10
287156.56
 20
6717427.42
  0
VERTEX
  8
cont
 10
287153.98
 20
6717428
  0
VERTEX
  8
cont
 10
287151.6
 20
6717429
  0
VERTEX
  8
cont
 10
287150.8
 20
6717429.18
  0
VERTEX
  8
cont
 10
287147.98
 20
6717430
  0
VERTEX
  8
cont
 10
287145.88
 20
6717431
  0
VERTEX
  8
cont
 10
287145.52
 20
6717433
  0
VERTEX
  8
cont
 10
287146.46
 20
6717435
  0
VERTEX
  8
cont
 10
287147
 20
6717435.46
  0
VERTEX
  8
cont
 10
287149
 20
6717436.76
  0
VERTEX
  8
cont
 10
287149.14
 20
6717437
  0
VERTEX
  8
cont
 10
287148.68
 20
6717439
  0
VERTEX
  8
cont
 10
287147.92
 20
6717441
  0
VERTEX
  8
cont
 10
287146.56
 20
6717443
  0
VERTEX
  8
cont
 10
287145.26
 20
6717445
  0
VERTEX
  8
cont
 10
287144.62
 20
6717447
  0
VERTEX
  8
cont
 10
287143.86
 20
6717449
  0
VERTEX
  8
cont
 10
287143.8
 20
6717451
  0
VERTEX
  8
cont
 10
287145
 20
6717452.18
  0
VERTEX
  8
cont
 10
287145.9
 20
6717453
  0
VERTEX
  8
cont
 10
287147
 20
6717453.62
  0
VERTEX
  8
cont
 10
287148.42
 20
6717455
  0
VERTEX
  8
cont
 10
287149
 20
6717455.3
  0
VERTEX
  8
cont
 10
287151
 20
6717456.62
  0
VERTEX
  8
cont
 10
287151.62
 20
6717457
  0
VERTEX
  8
cont
 10
287153
 20
6717457.86
  0
VERTEX
  8
cont
 10
287155
 20
6717458.64
  0
VERTEX
  8
cont
 10
287155.3
 20
6717459
  0
VERTEX
  8
cont
 10
287157
 20
6717459.84
  0
VERTEX
  8
cont
 10
287157.98
 20
6717461
  0
VERTEX
  8
cont
 10
287159
 20
6717462.1
  0
VERTEX
  8
cont
 10
287159.78
 20
6717463
  0
VERTEX
  8
cont
 10
287159.74
 20
6717465
  0
VERTEX
  8
cont
 10
287160.06
 20
6717467
  0
VERTEX
  8
cont
 10
287161
 20
6717467.94
  0
VERTEX
  8
cont
 10
287161.88
 20
6717469
  0
VERTEX
  8
cont
 10
287162.54
 20
6717471
  0
VERTEX
  8
cont
 10
287162.52
 20
6717473
  0
VERTEX
  8
cont
 10
287161.78
 20
6717475
  0
VERTEX
  8
cont
 10
287160.2
 20
6717477
  0
VERTEX
  8
cont
 10
287158
 20
6717479
  0
VERTEX
  8
cont
 10
287155.94
 20
6717480.04
  0
VERTEX
  8
cont
 10
287154.22
 20
6717479.76
  0
VERTEX
  8
cont
 10
287152.38
 20
6717479.6
  0
VERTEX
  8
cont
 10
287151.24
 20
6717478.74
  0
VERTEX
  8
cont
 10
287150.08
 20
6717477.9
  0
VERTEX
  8
cont
 10
287149.48
 20
6717476.5
  0
VERTEX
  8
cont
 10
287149.18
 20
6717474.8
  0
VERTEX
  8
cont
 10
287147.26
 20
6717474.72
  0
VERTEX
  8
cont
 10
287146.02
 20
6717473.96
  0
VERTEX
  8
cont
 10
287146.3
 20
6717471.68
  0
VERTEX
  8
cont
 10
287145.14
 20
6717470.84
  0
VERTEX
  8
cont
 10
287144.44
 20
6717471
  0
VERTEX
  8
cont
 10
287143.5
 20
6717473
  0
VERTEX
  8
cont
 10
287142.38
 20
6717475
  0
VERTEX
  8
cont
 10
287141.8
 20
6717477
  0
VERTEX
  8
cont
 10
287140.34
 20
6717477.64
  0
VERTEX
  8
cont
 10
287139.6
 20
6717476.38
  0
VERTEX
  8
cont
 10
287138.72
 20
6717477
  0
VERTEX
  8
cont
 10
287138.22
 20
6717479
  0
VERTEX
  8
cont
 10
287138.3
 20
6717481
  0
VERTEX
  8
cont
 10
287137.96
 20
6717483
  0
VERTEX
  8
cont
 10
287137.76
 20
6717485
  0
VERTEX
  8
cont
 10
287135.86
 20
6717487
  0
VERTEX
  8
cont
 10
287134.26
 20
6717487.72
  0
VERTEX
  8
cont
 10
287131.66
 20
6717488.32
  0
VERTEX
  8
cont
 10
287130.04
 20
6717489
  0
VERTEX
  8
cont
 10
287130.14
 20
6717491
  0
VERTEX
  8
cont
 10
287131
 20
6717492.06
  0
VERTEX
  8
cont
 10
287131.92
 20
6717493
  0
VERTEX
  8
cont
 10
287130.58
 20
6717495
  0
VERTEX
  8
cont
 10
287131
 20
6717495.48
  0
VERTEX
  8
cont
 10
287133
 20
6717496.2
  0
VERTEX
  8
cont
 10
287133.76
 20
6717497
  0
VERTEX
  8
cont
 10
287135
 20
6717498.22
  0
VERTEX
  8
cont
 10
287135.68
 20
6717499
  0
VERTEX
  8
cont
 10
287137
 20
6717499.6
  0
VERTEX
  8
cont
 10
287138.28
 20
6717501
  0
VERTEX
  8
cont
 10
287139
 20
6717501.5
  0
VERTEX
  8
cont
 10
287141
 20
6717501.82
  0
VERTEX
  8
cont
 10
287142.32
 20
6717503
  0
VERTEX
  8
cont
 10
287143
 20
6717503.16
  0
VERTEX
  8
cont
 10
287145
 20
6717502.58
  0
VERTEX
  8
cont
 10
287147
 20
6717502.6
  0
VERTEX
  8
cont
 10
287148
 20
6717503
  0
VERTEX
  8
cont
 10
287149
 20
6717503.3
  0
VERTEX
  8
cont
 10
287151
 20
6717503.38
  0
VERTEX
  8
cont
 10
287153
 20
6717504.44
  0
VERTEX
  8
cont
 10
287154.2
 20
6717505
  0
VERTEX
  8
cont
 10
287155
 20
6717505.18
  0
VERTEX
  8
cont
 10
287157
 20
6717506
  0
VERTEX
  8
cont
 10
287158.62
 20
6717507
  0
VERTEX
  8
cont
 10
287159
 20
6717507.28
  0
VERTEX
  8
cont
 10
287159.76
 20
6717509
  0
VERTEX
  8
cont
 10
287161
 20
6717509.74
  0
VERTEX
  8
cont
 10
287162.24
 20
6717511
  0
VERTEX
  8
cont
 10
287163
 20
6717511.98
  0
VERTEX
  8
cont
 10
287164.28
 20
6717513
  0
VERTEX
  8
cont
 10
287165
 20
6717514.66
  0
VERTEX
  8
cont
 10
287165.26
 20
6717515
  0
VERTEX
  8
cont
 10
287165.96
 20
6717517
  0
VERTEX
  8
cont
 10
287167
 20
6717518.24
  0
VERTEX
  8
cont
 10
287169
 20
6717518.18
  0
VERTEX
  8
cont
 10
287171
 20
6717518.52
  0
VERTEX
  8
cont
 10
287171.7
 20
6717519
  0
VERTEX
  8
cont
 10
287173
 20
6717520.26
  0
VERTEX
  8
cont
 10
287173.98
 20
6717521
  0
VERTEX
  8
cont
 10
287175
 20
6717521.44
  0
VERTEX
  8
cont
 10
287177
 20
6717521.92
  0
VERTEX
  8
cont
 10
287178.14
 20
6717523
  0
VERTEX
  8
cont
 10
287179
 20
6717523.38
  0
VERTEX
  8
cont
 10
287181
 20
6717524.02
  0
VERTEX
  8
cont
 10
287183
 20
6717524.48
  0
VERTEX
  8
cont
 10
287183.8
 20
6717525
  0
VERTEX
  8
cont
 10
287184.76
 20
6717527
  0
VERTEX
  8
cont
 10
287185
 20
6717527.18
  0
VERTEX
  8
cont
 10
287187
 20
6717527.6
  0
VERTEX
  8
cont
 10
287189
 20
6717527.86
  0
VERTEX
  8
cont
 10
287191
 20
6717527.76
  0
VERTEX
  8
cont
 10
287193
 20
6717528.54
  0
VERTEX
  8
cont
 10
287193.64
 20
6717529
  0
VERTEX
  8
cont
 10
287194.42
 20
6717531
  0
VERTEX
  8
cont
 10
287194.52
 20
6717531.46
  0
VERTEX
  8
cont
 10
287195
 20
6717531.76
  0
VERTEX
  8
cont
 10
287195.96
 20
6717532.02
  0
VERTEX
  8
cont
 10
287196.22
 20
6717533
  0
VERTEX
  8
cont
 10
287196.16
 20
6717533.82
  0
VERTEX
  8
cont
 10
287196.16
 20
6717535
  0
SEQEND
  0
POLYLINE
 66
1
  8
cont
  0
VERTEX
  8
cont
 10
287109
 20
6717422.84
  0
VERTEX
  8
cont
 10
287108.32
 20
6717423
  0
VERTEX
  8
cont
 10
287108.7
 20
6717423.28
  0
VERTEX
  8
cont
 10
287109
 20
6717424.22
  0
VERTEX
  8
cont
 10
287109.42
 20
6717423
  0
VERTEX
  8
cont
 10
287109.12
 20
6717422.86
  0
VERTEX
  8
cont
 10
287109
 20
6717422.84
  0
SEQEND
  0
POLYLINE
 66
1
  8
cont
  0
VERTEX
  8
cont
 10
287109
 20
6717430.48
  0
VERTEX
  8
cont
 10
287108.48
 20
6717431
  0
VERTEX
  8
cont
 10
287108.78
 20
6717431.2
  0
VERTEX
  8
cont
 10
287109
 20
6717431.4
  0
VERTEX
  8
cont
 10
287110.66
 20
6717431.32
  0
VERTEX
  8
cont
 10
287111
 20
6717431.24
  0
VERTEX
  8
cont
 10
287111.16
 20
6717431
  0
VERTEX
  8
cont
 10
287111.22
 20
6717430.76
  0
VERTEX
  8
cont
 10
287111
 20
6717430.62
  0
VERTEX
  8
cont
 10
287109.44
 20
6717430.54
  0
VERTEX
  8
cont
 10
287109
 20
6717430.48
  0
SEQEND
  0
POLYLINE
 66
1
  8
cont
  0
VERTEX
  8
cont
 10
287157
 20
6717450.86
  0
VERTEX
  8
cont
 10
287156.54
 20
6717451
  0
VERTEX
  8
cont
 10
287156.76
 20
6717451.22
  0
VERTEX
  8
cont
 10
287157
 20
6717451.7
  0
VERTEX
  8
cont
 10
287157.94
 20
6717451
  0
VERTEX
  8
cont
 10
287157.1
 20
6717450.88
  0
VERTEX
  8
cont
 10
287157
 20
6717450.86
  0
SEQEND
  0
POLYLINE
 66
1
  8
cont
  0
VERTEX
  8
cont
 10
287159
 20
6717451.46
  0
VERTEX
  8
cont
 10
287157.66
 20
6717453
  0
VERTEX
  8
cont
 10
287158.5
 20
6717453.48
  0
VERTEX
  8
cont
 10
287159
 20
6717453.42
  0
VERTEX
  8
cont
 10
287159.96
 20
6717453
  0
VERTEX
  8
cont
 10
287159.54
 20
6717452.44
  0
VERTEX
  8
cont
 10
287159
 20
6717451.46
  0
SEQEND
  0
POLYLINE
 66
1
  8
cont
  0
VERTEX
  8
cont
 10
287187
 20
6717434.48
  0
VERTEX
  8
cont
 10
287186.44
 20
6717435
  0
VERTEX
  8
cont
 10
287186.14
 20
6717435.84
  0
VERTEX
  8
cont
 10
287185.82
 20
6717437
  0
VERTEX
  8
cont
 10
287185.94
 20
6717438.04
  0
VERTEX
  8
cont
 10
287185.98
 20
6717440
  0
VERTEX
  8
cont
 10
287187.5
 20
6717440.48
  0
VERTEX
  8
cont
 10
287187.86
 20
6717442.12
  0
VERTEX
  8
cont
 10
287189.38
 20
6717442.6
  0
VERTEX
  8
cont
 10
287189.86
 20
6717444.12
  0
VERTEX
  8
cont
 10
287191.58
 20
6717444.4
  0
VERTEX
  8
cont
 10
287193.3
 20
6717444.68
  0
VERTEX
  8
cont
 10
287195.28
 20
6717444.7
  0
VERTEX
  8
cont
 10
287197.22
 20
6717444.76
  0
VERTEX
  8
cont
 10
287200.54
 20
6717443
  0
VERTEX
  8
cont
 10
287202.4
 20
6717441
  0
VERTEX
  8
cont
 10
287201
 20
6717439.34
  0
VERTEX
  8
cont
 10
287200.7
 20
6717439
  0
VERTEX
  8
cont
 10
287200.68
 20
6717437
  0
VERTEX
  8
cont
 10
287199
 20
6717435.46
  0
VERTEX
  8
cont
 10
287198.54
 20
6717435
  0
VERTEX
  8
cont
 10
287197
 20
6717433.4
  0
VERTEX
  8
cont
 10
287196.4
 20
6717433
  0
VERTEX
  8
cont
 10
287195
 20
6717432.02
  0
VERTEX
  8
cont
 10
287193
 20
6717432.14
  0
VERTEX
  8
cont
 10
287191.86
 20
6717432.12
  0
VERTEX
  8
cont
 10
287191
 20
6717432.16
  0
VERTEX
  8
cont
 10
287189.52
 20
6717432.46
  0
VERTEX
  8
cont
 10
287189
 20
6717432.58
  0
VERTEX
  8
cont
 10
287188.46
 20
6717433
  0
VERTEX
  8
cont
 10
287187
 20
6717434.48
  0
SEQEND
  0
POLYLINE
 66
1
  8
cont
  0
VERTEX
  8
cont
 10
287203
 20
6717446.38
  0
VERTEX
  8
cont
 10
287202.38
 20
6717447
  0
VERTEX
  8
cont
 10
287202.74
 20
6717447.24
  0
VERTEX
  8
cont
 10
287203
 20
6717447.76
  0
VERTEX
  8
cont
 10
287203.72
 20
6717448.26
  0
VERTEX
  8
cont
 10
287204.82
 20
6717449.16
  0
VERTEX
  8
cont
 10
287206.2
 20
6717449.78
  0
VERTEX
  8
cont
 10
287208.04
 20
6717449.94
  0
VERTEX
  8
cont
 10
287210.7
 20
6717449.28
  0
VERTEX
  8
cont
 10
287212.84
 20
6717449.14
  0
VERTEX
  8
cont
 10
287214.76
 20
6717449.22
  0
VERTEX
  8
cont
 10
287215.76
 20
6717449
  0
VERTEX
  8
cont
 10
287217.44
 20
6717448.54
  0
VERTEX
  8
cont
 10
287218.78
 20
6717449.2
  0
VERTEX
  8
cont
 10
287219.7
 20
6717449
  0
VERTEX
  8
cont
 10
287221.56
 20
6717448.42
  0
VERTEX
  8
cont
 10
287224.42
 20
6717447
  0
VERTEX
  8
cont
 10
287224.64
 20
6717445
  0
VERTEX
  8
cont
 10
287226
 20
6717444
  0
VERTEX
  8
cont
 10
287226.26
 20
6717445.72
  0
VERTEX
  8
cont
 10
287228
 20
6717445
  0
VERTEX
  8
cont
 10
287227.94
 20
6717443
  0
VERTEX
  8
cont
 10
287228.42
 20
6717441
  0
VERTEX
  8
cont
 10
287230.02
 20
6717439
  0
VERTEX
  8
cont
 10
287229
 20
6717438.18
  0
VERTEX
  8
cont
 10
287227
 20
6717437.36
  0
VERTEX
  8
cont
 10
287226.2
 20
6717437
  0
VERTEX
  8
cont
 10
287225
 20
6717436.78
  0
VERTEX
  8
cont
 10
287223
 20
6717436.7
  0
VERTEX
  8
cont
 10
287221
 20
6717436.4
  0
VERTEX
  8
cont
 10
287219
 20
6717436.68
  0
VERTEX
  8
cont
 10
287217
 20
6717438.38
  0
VERTEX
  8
cont
 10
287216.54
 20
6717439.44
  0
VERTEX
  8
cont
 10
287215.56
 20
6717442.42
  0
VERTEX
  8
cont
 10
287215
 20
6717443.3
  0
VERTEX
  8
cont
 10
287213
 20
6717443.8
  0
VERTEX
  8
cont
 10
287211
 20
6717443.96
  0
VERTEX
  8
cont
 10
287209
 20
6717444.46
  0
VERTEX
  8
cont
 10
287207.36
 20
6717444.62
  0
VERTEX
  8
cont
 10
287207
 20
6717444.66
  0
VERTEX
  8
cont
 10
287206
 20
6717445
  0
VERTEX
  8
cont
 10
287205
 20
6717445.52
  0
VERTEX
  8
cont
 10
287204
 20
6717446
  0
VERTEX
  8
cont
 10
287203
 20
6717446.38
  0
SEQEND
  0
POLYLINE
 66
1
  8
cont
  0
VERTEX
  8
cont
 10
287225
 20
6717448.26
  0
VERTEX
  8
cont
 10
287224
 20
6717449
  0
VERTEX
  8
cont
 10
287224.7
 20
6717449.28
  0
VERTEX
  8
cont
 10
287225
 20
6717449.24
  0
VERTEX
  8
cont
 10
287225.28
 20
6717449
  0
VERTEX
  8
cont
 10
287225.38
 20
6717448.6
  0
VERTEX
  8
cont
 10
287225
 20
6717448.26
  0
SEQEND
  0
POLYLINE
 66
1
  8
cont
  0
VERTEX
  8
cont
 10
287233
 20
6717438.06
  0
VERTEX
  8
cont
 10
287231.96
 20
6717439
  0
VERTEX
  8
cont
 10
287231.92
 20
6717440.06
  0
VERTEX
  8
cont
 10
287233
 20
6717440.06
  0
VERTEX
  8
cont
 10
287233.4
 20
6717440.58
  0
VERTEX
  8
cont
 10
287234
 20
6717442
  0
VERTEX
  8
cont
 10
287236
 20
6717441
  0
VERTEX
  8
cont
 10
287237.9
 20
6717440.08
  0
VERTEX
  8
cont
 10
287237
 20
6717442
  0
VERTEX
  8
cont
 10
287236
 20
6717444
  0
VERTEX
  8
cont
 10
287236.2
 20
6717445.78
  0
VERTEX
  8
cont
 10
287238
 20
6717445.98
  0
VERTEX
  8
cont
 10
287238.32
 20
6717447.66
  0
VERTEX
  8
cont
 10
287238.68
 20
6717449.3
  0
VERTEX
  8
cont
 10
287239.62
 20
6717449
  0
VERTEX
  8
cont
 10
287242.36
 20
6717447.62
  0
VERTEX
  8
cont
 10
287243.68
 20
6717448.3
  0
VERTEX
  8
cont
 10
287244.12
 20
6717449.86
  0
VERTEX
  8
cont
 10
287244.6
 20
6717451.38
  0
VERTEX
  8
cont
 10
287245.56
 20
6717452.42
  0
VERTEX
  8
cont
 10
287246.7
 20
6717453.28
  0
VERTEX
  8
cont
 10
287248.6
 20
6717453.38
  0
VERTEX
  8
cont
 10
287250
 20
6717453
  0
VERTEX
  8
cont
 10
287251.16
 20
6717452.82
  0
VERTEX
  8
cont
 10
287253.16
 20
6717452.82
  0
VERTEX
  8
cont
 10
287254.3
 20
6717453.68
  0
VERTEX
  8
cont
 10
287256
 20
6717453.98
  0
VERTEX
  8
cont
 10
287257.32
 20
6717454.66
  0
VERTEX
  8
cont
 10
287257.72
 20
6717456.26
  0
VERTEX
  8
cont
 10
287257.82
 20
6717458.16
  0
VERTEX
  8
cont
 10
287259.1
 20
6717458.88
  0
VERTEX
  8
cont
 10
287260.66
 20
6717459.32
  0
VERTEX
  8
cont
 10
287261.6
 20
6717460.38
  0
VERTEX
  8
cont
 10
287264.34
 20
6717459.64
  0
VERTEX
  8
cont
 10
287266.08
 20
6717459.9
  0
VERTEX
  8
cont
 10
287268
 20
6717459.98
  0
VERTEX
  8
cont
 10
287269.78
 20
6717460.2
  0
VERTEX
  8
cont
 10
287271.48
 20
6717460.5
  0
VERTEX
  8
cont
 10
287273.76
 20
6717460.22
  0
VERTEX
  8
cont
 10
287275.98
 20
6717460
  0
VERTEX
  8
cont
 10
287276.54
 20
6717461.44
  0
VERTEX
  8
cont
 10
287278.54
 20
6717461.44
  0
VERTEX
  8
cont
 10
287280.38
 20
6717461.6
  0
VERTEX
  8
cont
 10
287281
 20
6717461.86
  0
VERTEX
  8
cont
 10
287282
 20
6717461
  0
VERTEX
  8
cont
 10
287283
 20
6717460.22
  0
VERTEX
  8
cont
 10
287283.42
 20
6717460.56
  0
VERTEX
  8
cont
 10
287284
 20
6717461
  0
VERTEX
  8
cont
 10
287284.32
 20
6717461.66
  0
VERTEX
  8
cont
 10
287285
 20
6717461.6
  0
SEQEND
  0
POLYLINE
 66
1
  8
cont
  0
VERTEX
  8
cont
 10
287235
 20
6717434.3
  0
VERTEX
  8
cont
 10
287233.76
 20
6717435
  0
VERTEX
  8
cont
 10
287233.44
 20
6717436.54
  0
VERTEX
  8
cont
 10
287233.34
 20
6717437
  0
VERTEX
  8
cont
 10
287233
 20
6717438.06
  0
SEQEND
  0
POLYLINE
 66
1
  8
cont
  0
VERTEX
  8
cont
 10
287235
 20
6717434.3
  0
VERTEX
  8
cont
 10
287235.88
 20
6717434.1
  0
VERTEX
  8
cont
 10
287237
 20
6717433.6
  0
VERTEX
  8
cont
 10
287238
 20
6717433
  0
VERTEX
  8
cont
 10
287239
 20
6717432.28
  0
VERTEX
  8
cont
 10
287241
 20
6717432
  0
VERTEX
  8
cont
 10
287243
 20
6717431.4
  0
VERTEX
  8
cont
 10
287245
 20
6717431.22
  0
VERTEX
  8
cont
 10
287245.76
 20
6717430.22
  0
VERTEX
  8
cont
 10
287247
 20
6717428.68
  0
VERTEX
  8
cont
 10
287249
 20
6717428.34
  0
VERTEX
  8
cont
 10
287251
 20
6717428.2
  0
VERTEX
  8
cont
 10
287253
 20
6717427.32
  0
VERTEX
  8
cont
 10
287255
 20
6717425.94
  0
VERTEX
  8
cont
 10
287255.52
 20
6717424.46
  0
VERTEX
  8
cont
 10
287257
 20
6717422.34
  0
VERTEX
  8
cont
 10
287259
 20
6717422.38
  0
VERTEX
  8
cont
 10
287261
 20
6717421.26
  0
VERTEX
  8
cont
 10
287261.78
 20
6717420.2
  0
VERTEX
  8
cont
 10
287263
 20
6717418.48
  0
VERTEX
  8
cont
 10
287264.46
 20
6717415.52
  0
VERTEX
  8
cont
 10
287265
 20
6717414.74
  0
VERTEX
  8
cont
 10
287267
 20
6717413.38
  0
VERTEX
  8
cont
 10
287268.24
 20
6717411.74
  0
VERTEX
  8
cont
 10
287269
 20
6717410.86
  0
VERTEX
  8
cont
 10
287271
 20
6717410.54
  0
VERTEX
  8
cont
 10
287273
 20
6717409.6
  0
VERTEX
  8
cont
 10
287275
 20
6717408.76
  0
VERTEX
  8
cont
 10
287276.16
 20
6717409
  0
VERTEX
  8
cont
 10
287277
 20
6717409.46
  0
VERTEX
  8
cont
 10
287279
 20
6717408.34
  0
VERTEX
  8
cont
 10
287280.02
 20
6717407
  0
VERTEX
  8
cont
 10
287281
 20
6717406.28
  0
VERTEX
  8
cont
 10
287282.5
 20
6717405.48
  0
VERTEX
  8
cont
 10
287283
 20
6717405.16
  0
VERTEX
  8
cont
 10
287283.36
 20
6717405
  0
VERTEX
  8
cont
 10
287285
 20
6717404.28
  0
SEQEND
  0
POLYLINE
 66
1
  8
cont
  0
VERTEX
  8
cont
 10
287033
 20
6717446.08
  0
VERTEX
  8
cont
 10
287031.22
 20
6717447
  0
VERTEX
  8
cont
 10
287031.22
 20
6717448.76
  0
VERTEX
  8
cont
 10
287031.6
 20
6717449
  0
VERTEX
  8
cont
 10
287032.68
 20
6717449.3
  0
VERTEX
  8
cont
 10
287033.72
 20
6717450.26
  0
VERTEX
  8
cont
 10
287034.88
 20
6717451.1
  0
VERTEX
  8
cont
 10
287036.44
 20
6717451.54
  0
VERTEX
  8
cont
 10
287038.24
 20
6717451.74
  0
VERTEX
  8
cont
 10
287040.2
 20
6717451.78
  0
VERTEX
  8
cont
 10
287041.88
 20
6717452.1
  0
VERTEX
  8
cont
 10
287042.48
 20
6717453.5
  0
VERTEX
  8
cont
 10
287043.38
 20
6717454.6
  0
VERTEX
  8
cont
 10
287043.7
 20
6717456.28
  0
VERTEX
  8
cont
 10
287043.98
 20
6717458
  0
VERTEX
  8
cont
 10
287043
 20
6717460.02
  0
VERTEX
  8
cont
 10
287041.64
 20
6717462.34
  0
VERTEX
  8
cont
 10
287042.72
 20
6717463.26
  0
VERTEX
  8
cont
 10
287043.46
 20
6717464.52
  0
VERTEX
  8
cont
 10
287044.44
 20
6717465.54
  0
VERTEX
  8
cont
 10
287046.76
 20
6717465.22
  0
VERTEX
  8
cont
 10
287048.62
 20
6717465.36
  0
VERTEX
  8
cont
 10
287050.72
 20
6717465.26
  0
VERTEX
  8
cont
 10
287052.24
 20
6717465.74
  0
VERTEX
  8
cont
 10
287053.22
 20
6717466.76
  0
VERTEX
  8
cont
 10
287054
 20
6717467.98
  0
VERTEX
  8
cont
 10
287054.58
 20
6717469.4
  0
VERTEX
  8
cont
 10
287055.36
 20
6717470.62
  0
VERTEX
  8
cont
 10
287056.66
 20
6717471.32
  0
VERTEX
  8
cont
 10
287058.02
 20
6717471.96
  0
VERTEX
  8
cont
 10
287058.84
 20
6717473.14
  0
VERTEX
  8
cont
 10
287060.5
 20
6717473.48
  0
VERTEX
  8
cont
 10
287062.04
 20
6717473.94
  0
VERTEX
  8
cont
 10
287063.88
 20
6717474.1
  0
VERTEX
  8
cont
 10
287064.08
 20
6717475.9
  0
VERTEX
  8
cont
 10
287063.36
 20
6717478.62
  0
VERTEX
  8
cont
 10
287063.34
 20
6717480.64
  0
VERTEX
  8
cont
 10
287063.96
 20
6717482.02
  0
VERTEX
  8
cont
 10
287064.46
 20
6717483.52
  0
VERTEX
  8
cont
 10
287064.66
 20
6717485.32
  0
VERTEX
  8
cont
 10
287064.76
 20
6717487.22
  0
VERTEX
  8
cont
 10
287065.66
 20
6717488.32
  0
VERTEX
  8
cont
 10
287066.7
 20
6717489.28
  0
VERTEX
  8
cont
 10
287066.8
 20
6717491.18
  0
VERTEX
  8
cont
 10
287067.26
 20
6717492.72
  0
VERTEX
  8
cont
 10
287068.28
 20
6717493.7
  0
VERTEX
  8
cont
 10
287069.3
 20
6717494.68
  0
VERTEX
  8
cont
 10
287070.2
 20
6717495.78
  0
VERTEX
  8
cont
 10
287070.64
 20
6717497.34
  0
VERTEX
  8
cont
 10
287071.34
 20
6717498.64
  0
VERTEX
  8
cont
 10
287071.62
 20
6717500.36
  0
VERTEX
  8
cont
 10
287073.34
 20
6717500.64
  0
VERTEX
  8
cont
 10
287074.24
 20
6717501.74
  0
VERTEX
  8
cont
 10
287076.18
 20
6717501.8
  0
VERTEX
  8
cont
 10
287077.78
 20
6717502.2
  0
VERTEX
  8
cont
 10
287079.4
 20
6717502.58
  0
VERTEX
  8
cont
 10
287080.56
 20
6717503.42
  0
VERTEX
  8
cont
 10
287082.42
 20
6717503.56
  0
VERTEX
  8
cont
 10
287084
 20
6717503
  0
VERTEX
  8
cont
 10
287086
 20
6717501
  0
VERTEX
  8
cont
 10
287088
 20
6717499
  0
VERTEX
  8
cont
 10
287090
 20
6717498
  0
VERTEX
  8
cont
 10
287092
 20
6717497
  0
VERTEX
  8
cont
 10
287092.04
 20
6717495
  0
VERTEX
  8
cont
 10
287093.98
 20
6717493
  0
VERTEX
  8
cont
 10
287096.28
 20
6717491
  0
VERTEX
  8
cont
 10
287098.1
 20
6717489.88
  0
VERTEX
  8
cont
 10
287100.48
 20
6717489.5
  0
VERTEX
  8
cont
 10
287102.22
 20
6717489.76
  0
VERTEX
  8
cont
 10
287103.4
 20
6717489
  0
VERTEX
  8
cont
 10
287103.62
 20
6717487
  0
VERTEX
  8
cont
 10
287103.44
 20
6717485
  0
VERTEX
  8
cont
 10
287103.44
 20
6717483
  0
VERTEX
  8
cont
 10
287103.92
 20
6717481
  0
VERTEX
  8
cont
 10
287105.56
 20
6717479
  0
VERTEX
  8
cont
 10
287105.96
 20
6717477
  0
VERTEX
  8
cont
 10
287108.26
 20
6717475
  0
VERTEX
  8
cont
 10
287110.06
 20
6717473
  0
VERTEX
  8
cont
 10
287111.54
 20
6717472.44
  0
VERTEX
  8
cont
 10
287114.76
 20
6717471
  0
VERTEX
  8
cont
 10
287116.9
 20
6717469
  0
VERTEX
  8
cont
 10
287118.88
 20
6717467
  0
VERTEX
  8
cont
 10
287119.18
 20
6717466.8
  0
VERTEX
  8
cont
 10
287120.1
 20
6717467.88
  0
VERTEX
  8
cont
 10
287122.2
 20
6717467.78
  0
VERTEX
  8
cont
 10
287123.94
 20
6717468.04
  0
VERTEX
  8
cont
 10
287123.64
 20
6717470.34
  0
VERTEX
  8
cont
 10
287124
 20
6717472
  0
VERTEX
  8
cont
 10
287125.82
 20
6717472.16
  0
VERTEX
  8
cont
 10
287125
 20
6717473.74
  0
VERTEX
  8
cont
 10
287123
 20
6717474
  0
VERTEX
  8
cont
 10
287122.36
 20
6717475.62
  0
VERTEX
  8
cont
 10
287122
 20
6717478
  0
VERTEX
  8
cont
 10
287122.2
 20
6717479.78
  0
VERTEX
  8
cont
 10
287124.56
 20
6717479.42
  0
VERTEX
  8
cont
 10
287125.84
 20
6717479
  0
VERTEX
  8
cont
 10
287127.8
 20
6717477
  0
VERTEX
  8
cont
 10
287128.16
 20
6717475
  0
VERTEX
  8
cont
 10
287127.68
 20
6717473
  0
VERTEX
  8
cont
 10
287128.16
 20
6717471
  0
VERTEX
  8
cont
 10
287128
 20
6717469
  0
VERTEX
  8
cont
 10
287129.62
 20
6717468.36
  0
VERTEX
  8
cont
 10
287130
 20
6717470
  0
VERTEX
  8
cont
 10
287131.94
 20
6717470.04
  0
VERTEX
  8
cont
 10
287131.84
 20
6717472.14
  0
VERTEX
  8
cont
 10
287131.24
 20
6717474.74
  0
VERTEX
  8
cont
 10
287132.68
 20
6717475.3
  0
VERTEX
  8
cont
 10
287133.48
 20
6717475
  0
VERTEX
  8
cont
 10
287134.74
 20
6717473
  0
VERTEX
  8
cont
 10
287135.22
 20
6717472.76
  0
VERTEX
  8
cont
 10
287137.46
 20
6717471
  0
VERTEX
  8
cont
 10
287138.04
 20
6717469
  0
VERTEX
  8
cont
 10
287138
 20
6717467
  0
VERTEX
  8
cont
 10
287137
 20
6717465.62
  0
VERTEX
  8
cont
 10
287136.26
 20
6717465
  0
VERTEX
  8
cont
 10
287135.54
 20
6717463
  0
VERTEX
  8
cont
 10
287135
 20
6717462.46
  0
VERTEX
  8
cont
 10
287133
 20
6717462.48
  0
VERTEX
  8
cont
 10
287131
 20
6717463.9
  0
VERTEX
  8
cont
 10
287130.26
 20
6717463
  0
VERTEX
  8
cont
 10
287129
 20
6717461.86
  0
VERTEX
  8
cont
 10
287128.1
 20
6717461
  0
VERTEX
  8
cont
 10
287127
 20
6717460.56
  0
VERTEX
  8
cont
 10
287125
 20
6717461.4
  0
VERTEX
  8
cont
 10
287124.84
 20
6717461
  0
VERTEX
  8
cont
 10
287124.04
 20
6717459
  0
VERTEX
  8
cont
 10
287124.18
 20
6717457
  0
VERTEX
  8
cont
 10
287125.24
 20
6717455
  0
VERTEX
  8
cont
 10
287127.86
 20
6717453
  0
VERTEX
  8
cont
 10
287127.74
 20
6717451
  0
VERTEX
  8
cont
 10
287127
 20
6717449.22
  0
VERTEX
  8
cont
 10
287126.84
 20
6717449
  0
VERTEX
  8
cont
 10
287126.58
 20
6717447
  0
VERTEX
  8
cont
 10
287125
 20
6717445.68
  0
VERTEX
  8
cont
 10
287124.38
 20
6717445
  0
VERTEX
  8
cont
 10
287123.7
 20
6717443
  0
VERTEX
  8
cont
 10
287123.42
 20
6717441
  0
VERTEX
  8
cont
 10
287124.62
 20
6717439
  0
VERTEX
  8
cont
 10
287125.94
 20
6717438.04
  0
VERTEX
  8
cont
 10
287127.34
 20
6717437
  0
VERTEX
  8
cont
 10
287127
 20
6717436.42
  0
VERTEX
  8
cont
 10
287125
 20
6717436.02
  0
VERTEX
  8
cont
 10
287123
 20
6717437.36
  0
VERTEX
  8
cont
 10
287122.52
 20
6717437
  0
VERTEX
  8
cont
 10
287121
 20
6717435.46
  0
VERTEX
  8
cont
 10
287120.56
 20
6717435
  0
VERTEX
  8
cont
 10
287119
 20
6717434.34
  0
VERTEX
  8
cont
 10
287117
 20
6717436.14
  0
VERTEX
  8
cont
 10
287115
 20
6717436.58
  0
VERTEX
  8
cont
 10
287113
 20
6717437.34
  0
VERTEX
  8
cont
 10
287111
 20
6717437.52
  0
VERTEX
  8
cont
 10
287109
 20
6717437.86
  0
VERTEX
  8
cont
 10
287108.1
 20
6717437
  0
VERTEX
  8
cont
 10
287107
 20
6717436.42
  0
VERTEX
  8
cont
 10
287105.74
 20
6717435
  0
VERTEX
  8
cont
 10
287105
 20
6717434.78
  0
VERTEX
  8
cont
 10
287103.04
 20
6717433
  0
VERTEX
  8
cont
 10
287103
 20
6717432.88
  0
VERTEX
  8
cont
 10
287101
 20
6717434.62
  0
VERTEX
  8
cont
 10
287099
 20
6717433.64
  0
VERTEX
  8
cont
 10
287097.58
 20
6717433
  0
VERTEX
  8
cont
 10
287097
 20
6717432.5
  0
VERTEX
  8
cont
 10
287095.8
 20
6717431
  0
VERTEX
  8
cont
 10
287095.5
 20
6717429
  0
VERTEX
  8
cont
 10
287095
 20
6717428.04
  0
VERTEX
  8
cont
 10
287094.4
 20
6717427
  0
VERTEX
  8
cont
 10
287093
 20
6717426.16
  0
VERTEX
  8
cont
 10
287091
 20
6717427.56
  0
VERTEX
  8
cont
 10
287089
 20
6717428.78
  0
VERTEX
  8
cont
 10
287087
 20
6717427.64
  0
VERTEX
  8
cont
 10
287086.6
 20
6717427
  0
VERTEX
  8
cont
 10
287085
 20
6717425.1
  0
VERTEX
  8
cont
 10
287084.84
 20
6717425
  0
VERTEX
  8
cont
 10
287083
 20
6717423.38
  0
VERTEX
  8
cont
 10
287082.52
 20
6717423
  0
VERTEX
  8
cont
 10
287082.32
 20
6717421
  0
VERTEX
  8
cont
 10
287081
 20
6717420.92
  0
VERTEX
  8
cont
 10
287079
 20
6717420.14
  0
VERTEX
  8
cont
 10
287077
 20
6717419.94
  0
VERTEX
  8
cont
 10
287075.84
 20
6717419
  0
VERTEX
  8
cont
 10
287075
 20
6717418.34
  0
VERTEX
  8
cont
 10
287073
 20
6717418.52
  0
VERTEX
  8
cont
 10
287071
 20
6717417.92
  0
VERTEX
  8
cont
 10
287069
 20
6717417.72
  0
VERTEX
  8
cont
 10
287067
 20
6717418.14
  0
VERTEX
  8
cont
 10
287065
 20
6717418.3
  0
VERTEX
  8
cont
 10
287063
 20
6717418.44
  0
VERTEX
  8
cont
 10
287061
 20
6717417.1
  0
VERTEX
  8
cont
 10
287059
 20
6717417.78
  0
VERTEX
  8
cont
 10
287057
 20
6717419.14
  0
VERTEX
  8
cont
 10
287055
 20
6717419.62
  0
VERTEX
  8
cont
 10
287053
 20
6717419.98
  0
VERTEX
  8
cont
 10
287051
 20
6717420.14
  0
VERTEX
  8
cont
 10
287049.9
 20
6717422.08
  0
VERTEX
  8
cont
 10
287049.98
 20
6717424
  0
VERTEX
  8
cont
 10
287052.06
 20
6717423.92
  0
VERTEX
  8
cont
 10
287053.14
 20
6717424.84
  0
VERTEX
  8
cont
 10
287053.94
 20
6717426.04
  0
VERTEX
  8
cont
 10
287054.62
 20
6717427.36
  0
VERTEX
  8
cont
 10
287055.82
 20
6717428.16
  0
VERTEX
  8
cont
 10
287055.72
 20
6717430.26
  0
VERTEX
  8
cont
 10
287055.64
 20
6717432.34
  0
VERTEX
  8
cont
 10
287056
 20
6717433.98
  0
VERTEX
  8
cont
 10
287056.16
 20
6717435.82
  0
VERTEX
  8
cont
 10
287056.62
 20
6717437.36
  0
VERTEX
  8
cont
 10
287055
 20
6717439.92
  0
VERTEX
  8
cont
 10
287053.8
 20
6717439
  0
VERTEX
  8
cont
 10
287053
 20
6717438.1
  0
VERTEX
  8
cont
 10
287052.38
 20
6717439.6
  0
VERTEX
  8
cont
 10
287051.58
 20
6717442.4
  0
VERTEX
  8
cont
 10
287051
 20
6717443.38
  0
VERTEX
  8
cont
 10
287049
 20
6717445.84
  0
VERTEX
  8
cont
 10
287047
 20
6717447.66
  0
VERTEX
  8
cont
 10
287045
 20
6717449.46
  0
VERTEX
  8
cont
 10
287043
 20
6717449.98
  0
VERTEX
  8
cont
 10
287041
 20
6717449.66
  0
VERTEX
  8
cont
 10
287040.34
 20
6717449
  0
VERTEX
  8
cont
 10
287039
 20
6717447.46
  0
VERTEX
  8
cont
 10
287037
 20
6717447.12
  0
VERTEX
  8
cont
 10
287036.88
 20
6717447.1
  0
VERTEX
  8
cont
 10
287036.82
 20
6717447
  0
VERTEX
  8
cont
 10
287036.18
 20
6717445.8
  0
VERTEX
  8
cont
 10
287035
 20
6717445.74
  0
VERTEX
  8
cont
 10
287034.06
 20
6717445.92
  0
VERTEX
  8
cont
 10
287033
 20
6717446.08
  0
SEQEND
  0
POLYLINE
 66
1
  8
cont
  0
VERTEX
  8
cont
 10
287085
 20
6717504
  0
VERTEX
  8
cont
 10
287084.18
 20
6717505
  0
VERTEX
  8
cont
 10
287084.4
 20
6717505.58
  0
VERTEX
  8
cont
 10
287085
 20
6717506
  0
VERTEX
  8
cont
 10
287086
 20
6717505
  0
VERTEX
  8
cont
 10
287085.9
 20
6717504.08
  0
VERTEX
  8
cont
 10
287085
 20
6717504
  0
SEQEND
  0
POLYLINE
 66
1
  8
cont
  0
VERTEX
  8
cont
 10
287089
 20
6717506
  0
VERTEX
  8
cont
 10
287088.44
 20
6717507
  0
VERTEX
  8
cont
 10
287088.78
 20
6717507.2
  0
VERTEX
  8
cont
 10
287089
 20
6717507.4
  0
VERTEX
  8
cont
 10
287090.58
 20
6717507.4
  0
VERTEX
  8
cont
 10
287092
 20
6717508
  0
VERTEX
  8
cont
 10
287092.08
 20
6717509.9
  0
VERTEX
  8
cont
 10
287092.02
 20
6717511.96
  0
VERTEX
  8
cont
 10
287093.42
 20
6717512.56
  0
VERTEX
  8
cont
 10
287096.46
 20
6717511
  0
VERTEX
  8
cont
 10
287097.32
 20
6717509
  0
VERTEX
  8
cont
 10
287097
 20
6717508
  0
VERTEX
  8
cont
 10
287096
 20
6717507
  0
VERTEX
  8
cont
 10
287096
 20
6717505
  0
VERTEX
  8
cont
 10
287095
 20
6717504
  0
VERTEX
  8
cont
 10
287094
 20
6717505
  0
VERTEX
  8
cont
 10
287093
 20
6717506
  0
VERTEX
  8
cont
 10
287092
 20
6717506
  0
VERTEX
  8
cont
 10
287091
 20
6717506
  0
VERTEX
  8
cont
 10
287090
 20
6717506
  0
VERTEX
  8
cont
 10
287089
 20
6717506
  0
SEQEND
  0
POLYLINE
 66
1
  8
cont
  0
VERTEX
  8
cont
 10
287121
 20
6717470.46
  0
VERTEX
  8
cont
 10
287119.98
 20
6717471
  0
VERTEX
  8
cont
 10
287120.6
 20
6717471.38
  0
VERTEX
  8
cont
 10
287121
 20
6717471.6
  0
VERTEX
  8
cont
 10
287122
 20
6717471
  0
VERTEX
  8
cont
 10
287122
 20
6717469.98
  0
VERTEX
  8
cont
 10
287121
 20
6717470.46
  0
SEQEND
  0
POLYLINE
 66
1
  8
cont
  0
VERTEX
  8
cont
 10
287125
 20
6717508.4
  0
VERTEX
  8
cont
 10
287124.72
 20
6717509
  0
VERTEX
  8
cont
 10
287124.88
 20
6717509.1
  0
VERTEX
  8
cont
 10
287125
 20
6717509.44
  0
VERTEX
  8
cont
 10
287125.62
 20
6717509
  0
VERTEX
  8
cont
 10
287125.64
 20
6717508.34
  0
VERTEX
  8
cont
 10
287125
 20
6717508.4
  0
SEQEND
  0
POLYLINE
 66
1
  8
cont
  0
VERTEX
  8
cont
 10
287139
 20
6717438.64
  0
VERTEX
  8
cont
 10
287138.72
 20
6717439
  0
VERTEX
  8
cont
 10
287138.7
 20
6717439.28
  0
VERTEX
  8
cont
 10
287138.54
 20
6717441
  0
VERTEX
  8
cont
 10
287138.56
 20
6717441.42
  0
VERTEX
  8
cont
 10
287140.16
 20
6717441.82
  0
VERTEX
  8
cont
 10
287141.8
 20
6717441
  0
VERTEX
  8
cont
 10
287143.94
 20
6717439
  0
VERTEX
  8
cont
 10
287143.92
 20
6717437
  0
VERTEX
  8
cont
 10
287143.72
 20
6717436.26
  0
VERTEX
  8
cont
 10
287143
 20
6717436.26
  0
VERTEX
  8
cont
 10
287141.72
 20
6717436.26
  0
VERTEX
  8
cont
 10
287141
 20
6717436.16
  0
VERTEX
  8
cont
 10
287140.12
 20
6717437
  0
VERTEX
  8
cont
 10
287139
 20
6717438.64
  0
SEQEND
  0
POLYLINE
 66
1
  8
cont
  0
VERTEX
  8
cont
 10
287147
 20
6717424
  0
VERTEX
  8
cont
 10
287145.98
 20
6717425
  0
VERTEX
  8
cont
 10
287146.06
 20
6717425.92
  0
VERTEX
  8
cont
 10
287147
 20
6717426.26
  0
VERTEX
  8
cont
 10
287147.78
 20
6717426.2
  0
VERTEX
  8
cont
 10
287149.86
 20
6717426.12
  0
VERTEX
  8
cont
 10
287151.7
 20
6717425
  0
VERTEX
  8
cont
 10
287151
 20
6717424.18
  0
VERTEX
  8
cont
 10
287149.88
 20
6717424.1
  0
VERTEX
  8
cont
 10
287149.64
 20
6717423
  0
VERTEX
  8
cont
 10
287149.52
 20
6717422.46
  0
VERTEX
  8
cont
 10
287149
 20
6717422.44
  0
VERTEX
  8
cont
 10
287148.28
 20
6717423
  0
VERTEX
  8
cont
 10
287147
 20
6717424
  0
SEQEND
  0
POLYLINE
 66
1
  8
cont
  0
VERTEX
  8
cont
 10
287267
 20
6717444.32
  0
VERTEX
  8
cont
 10
287266.5
 20
6717445
  0
VERTEX
  8
cont
 10
287266.44
 20
6717445.54
  0
VERTEX
  8
cont
 10
287267
 20
6717446.38
  0
VERTEX
  8
cont
 10
287268.24
 20
6717445.74
  0
VERTEX
  8
cont
 10
287268.22
 20
6717447.76
  0
VERTEX
  8
cont
 10
287270.46
 20
6717447.52
  0
VERTEX
  8
cont
 10
287271.74
 20
6717448.24
  0
VERTEX
  8
cont
 10
287273.58
 20
6717448.4
  0
VERTEX
  8
cont
 10
287274.28
 20
6717449.7
  0
VERTEX
  8
cont
 10
287276.62
 20
6717449.36
  0
VERTEX
  8
cont
 10
287278.28
 20
6717449
  0
VERTEX
  8
cont
 10
287279.14
 20
6717448.84
  0
VERTEX
  8
cont
 10
287280
 20
6717449
  0
VERTEX
  8
cont
 10
287280.76
 20
6717449.22
  0
VERTEX
  8
cont
 10
287281
 20
6717449.34
  0
VERTEX
  8
cont
 10
287282.18
 20
6717449.8
  0
VERTEX
  8
cont
 10
287283
 20
6717449.92
  0
VERTEX
  8
cont
 10
287283.82
 20
6717450.16
  0
VERTEX
  8
cont
 10
287285
 20
6717450.22
  0
SEQEND
  0
POLYLINE
 66
1
  8
cont
  0
VERTEX
  8
cont
 10
287267
 20
6717444.32
  0
VERTEX
  8
cont
 10
287267.84
 20
6717444.14
  0
VERTEX
  8
cont
 10
287269
 20
6717444.66
  0
VERTEX
  8
cont
 10
287269.64
 20
6717444.34
  0
VERTEX
  8
cont
 10
287271
 20
6717443.64
  0
VERTEX
  8
cont
 10
287273
 20
6717441.92
  0
VERTEX
  8
cont
 10
287273.32
 20
6717440.66
  0
VERTEX
  8
cont
 10
287271.46
 20
6717440.52
  0
VERTEX
  8
cont
 10
287271.5
 20
6717438.48
  0
VERTEX
  8
cont
 10
287270.34
 20
6717437.64
  0
VERTEX
  8
cont
 10
287270.74
 20
6717435.24
  0
VERTEX
  8
cont
 10
287271
 20
6717434.64
  0
VERTEX
  8
cont
 10
287272.34
 20
6717431.64
  0
VERTEX
  8
cont
 10
287271.56
 20
6717430.42
  0
VERTEX
  8
cont
 10
287271.38
 20
6717428.6
  0
VERTEX
  8
cont
 10
287272.22
 20
6717425.76
  0
VERTEX
  8
cont
 10
287273
 20
6717424.36
  0
VERTEX
  8
cont
 10
287275
 20
6717422.72
  0
VERTEX
  8
cont
 10
287277
 20
6717421.42
  0
VERTEX
  8
cont
 10
287279
 20
6717420.52
  0
VERTEX
  8
cont
 10
287280.32
 20
6717419.66
  0
VERTEX
  8
cont
 10
287281
 20
6717419.3
  0
VERTEX
  8
cont
 10
287281.58
 20
6717419
  0
VERTEX
  8
cont
 10
287283
 20
6717418.44
  0
VERTEX
  8
cont
 10
287284.4
 20
6717417.58
  0
VERTEX
  8
cont
 10
287285
 20
6717417.26
  0
SEQEND
  0
POLYLINE
 66
1
  8
cont
  0
VERTEX
  8
cont
 10
287053
 20
6717449.86
  0
VERTEX
  8
cont
 10
287052.38
 20
6717451
  0
VERTEX
  8
cont
 10
287052.5
 20
6717451.48
  0
VERTEX
  8
cont
 10
287053
 20
6717452.6
  0
VERTEX
  8
cont
 10
287053.42
 20
6717452.56
  0
VERTEX
  8
cont
 10
287055.2
 20
6717452.78
  0
VERTEX
  8
cont
 10
287056.2
 20
6717453.78
  0
VERTEX
  8
cont
 10
287057.4
 20
6717454.58
  0
VERTEX
  8
cont
 10
287058.68
 20
6717455.3
  0
VERTEX
  8
cont
 10
287059.88
 20
6717456.1
  0
VERTEX
  8
cont
 10
287061.14
 20
6717456.84
  0
VERTEX
  8
cont
 10
287062.44
 20
6717457.54
  0
VERTEX
  8
cont
 10
287063.74
 20
6717458.24
  0
VERTEX
  8
cont
 10
287065.2
 20
6717458.78
  0
VERTEX
  8
cont
 10
287067.54
 20
6717458.44
  0
VERTEX
  8
cont
 10
287069.12
 20
6717458.86
  0
VERTEX
  8
cont
 10
287069
 20
6717460
  0
VERTEX
  8
cont
 10
287068.78
 20
6717461.2
  0
VERTEX
  8
cont
 10
287070.38
 20
6717461.6
  0
VERTEX
  8
cont
 10
287072.76
 20
6717461.22
  0
VERTEX
  8
cont
 10
287073.24
 20
6717461
  0
VERTEX
  8
cont
 10
287075.32
 20
6717459
  0
VERTEX
  8
cont
 10
287076
 20
6717457
  0
VERTEX
  8
cont
 10
287077.3
 20
6717456.68
  0
VERTEX
  8
cont
 10
287080.02
 20
6717455.96
  0
VERTEX
  8
cont
 10
287082
 20
6717455
  0
VERTEX
  8
cont
 10
287084.78
 20
6717453
  0
VERTEX
  8
cont
 10
287086.78
 20
6717451
  0
VERTEX
  8
cont
 10
287088.02
 20
6717449
  0
VERTEX
  8
cont
 10
287088.06
 20
6717447
  0
VERTEX
  8
cont
 10
287087.9
 20
6717445
  0
VERTEX
  8
cont
 10
287087.68
 20
6717443
  0
VERTEX
  8
cont
 10
287087
 20
6717441.52
  0
VERTEX
  8
cont
 10
287085
 20
6717441.46
  0
VERTEX
  8
cont
 10
287084.34
 20
6717441
  0
VERTEX
  8
cont
 10
287083
 20
6717440.26
  0
VERTEX
  8
cont
 10
287082
 20
6717439
  0
VERTEX
  8
cont
 10
287081.58
 20
6717437
  0
VERTEX
  8
cont
 10
287081
 20
6717436.18
  0
VERTEX
  8
cont
 10
287080.12
 20
6717435
  0
VERTEX
  8
cont
 10
287079.2
 20
6717433
  0
VERTEX
  8
cont
 10
287079
 20
6717432.28
  0
VERTEX
  8
cont
 10
287078.54
 20
6717431
  0
VERTEX
  8
cont
 10
287077.86
 20
6717429
  0
VERTEX
  8
cont
 10
287077
 20
6717428.28
  0
VERTEX
  8
cont
 10
287075
 20
6717429.58
  0
VERTEX
  8
cont
 10
287074.04
 20
6717429
  0
VERTEX
  8
cont
 10
287073
 20
6717427.84
  0
VERTEX
  8
cont
 10
287072.56
 20
6717427
  0
VERTEX
  8
cont
 10
287073.52
 20
6717425
  0
VERTEX
  8
cont
 10
287073
 20
6717424.4
  0
VERTEX
  8
cont
 10
287072.28
 20
6717423
  0
VERTEX
  8
cont
 10
287071
 20
6717422.28
  0
VERTEX
  8
cont
 10
287069
 20
6717423.2
  0
VERTEX
  8
cont
 10
287067.72
 20
6717426.26
  0
VERTEX
  8
cont
 10
287068.32
 20
6717427.66
  0
VERTEX
  8
cont
 10
287068.64
 20
6717429.34
  0
VERTEX
  8
cont
 10
287067
 20
6717431.96
  0
VERTEX
  8
cont
 10
287065
 20
6717432.82
  0
VERTEX
  8
cont
 10
287064.74
 20
6717433.24
  0
VERTEX
  8
cont
 10
287064.6
 20
6717435.38
  0
VERTEX
  8
cont
 10
287064.26
 20
6717437.72
  0
VERTEX
  8
cont
 10
287066.06
 20
6717437.92
  0
VERTEX
  8
cont
 10
287066.12
 20
6717439.86
  0
VERTEX
  8
cont
 10
287067.14
 20
6717440.84
  0
VERTEX
  8
cont
 10
287067
 20
6717441.5
  0
VERTEX
  8
cont
 10
287065
 20
6717444.46
  0
VERTEX
  8
cont
 10
287063
 20
6717445.7
  0
VERTEX
  8
cont
 10
287061
 20
6717446.28
  0
VERTEX
  8
cont
 10
287059
 20
6717446.42
  0
VERTEX
  8
cont
 10
287058.24
 20
6717447
  0
VERTEX
  8
cont
 10
287057
 20
6717448.02
  0
VERTEX
  8
cont
 10
287055.28
 20
6717448.7
  0
VERTEX
  8
cont
 10
287055
 20
6717448.88
  0
VERTEX
  8
cont
 10
287054.56
 20
6717449
  0
VERTEX
  8
cont
 10
287053
 20
6717449.86
  0
SEQEND
  0
POLYLINE
 66
1
  8
cont
  0
VERTEX
  8
cont
 10
287073
 20
6717478.56
  0
VERTEX
  8
cont
 10
287072.58
 20
6717479
  0
VERTEX
  8
cont
 10
287072.56
 20
6717479.42
  0
VERTEX
  8
cont
 10
287072.54
 20
6717481
  0
VERTEX
  8
cont
 10
287072.52
 20
6717481.46
  0
VERTEX
  8
cont
 10
287072.46
 20
6717483.52
  0
VERTEX
  8
cont
 10
287072.52
 20
6717485.46
  0
VERTEX
  8
cont
 10
287074.4
 20
6717485.58
  0
VERTEX
  8
cont
 10
287076.44
 20
6717485.54
  0
VERTEX
  8
cont
 10
287078.32
 20
6717485.66
  0
VERTEX
  8
cont
 10
287080.24
 20
6717485.74
  0
VERTEX
  8
cont
 10
287082.32
 20
6717485.66
  0
VERTEX
  8
cont
 10
287083.64
 20
6717485
  0
VERTEX
  8
cont
 10
287083.62
 20
6717483
  0
VERTEX
  8
cont
 10
287083
 20
6717482.3
  0
VERTEX
  8
cont
 10
287081.58
 20
6717481
  0
VERTEX
  8
cont
 10
287081
 20
6717480.4
  0
VERTEX
  8
cont
 10
287079
 20
6717480.32
  0
VERTEX
  8
cont
 10
287077
 20
6717480.22
  0
VERTEX
  8
cont
 10
287075.72
 20
6717480.26
  0
VERTEX
  8
cont
 10
287075
 20
6717480.32
  0
VERTEX
  8
cont
 10
287073.56
 20
6717480.42
  0
VERTEX
  8
cont
 10
287073.54
 20
6717479
  0
VERTEX
  8
cont
 10
287073.46
 20
6717478.52
  0
VERTEX
  8
cont
 10
287073
 20
6717478.56
  0
SEQEND
  0
POLYLINE
 66
1
  8
cont
  0
VERTEX
  8
cont
 10
287099
 20
6717454.04
  0
VERTEX
  8
cont
 10
287097.72
 20
6717455
  0
VERTEX
  8
cont
 10
287097.66
 20
6717456.32
  0
VERTEX
  8
cont
 10
287099
 20
6717456.74
  0
VERTEX
  8
cont
 10
287099.18
 20
6717456.8
  0
VERTEX
  8
cont
 10
287101.26
 20
6717456.72
  0
VERTEX
  8
cont
 10
287102.68
 20
6717457.3
  0
VERTEX
  8
cont
 10
287103.54
 20
6717458.44
  0
VERTEX
  8
cont
 10
287105.34
 20
6717458.64
  0
VERTEX
  8
cont
 10
287107.34
 20
6717458.64
  0
VERTEX
  8
cont
 10
287109.12
 20
6717458.86
  0
VERTEX
  8
cont
 10
287112.4
 20
6717457.58
  0
VERTEX
  8
cont
 10
287113.38
 20
6717457
  0
VERTEX
  8
cont
 10
287113.24
 20
6717455
  0
VERTEX
  8
cont
 10
287114.9
 20
6717453
  0
VERTEX
  8
cont
 10
287115.24
 20
6717451
  0
VERTEX
  8
cont
 10
287118.46
 20
6717449
  0
VERTEX
  8
cont
 10
287118.78
 20
6717447
  0
VERTEX
  8
cont
 10
287118.64
 20
6717445
  0
VERTEX
  8
cont
 10
287118.58
 20
6717443
  0
VERTEX
  8
cont
 10
287117
 20
6717441.62
  0
VERTEX
  8
cont
 10
287115
 20
6717441.44
  0
VERTEX
  8
cont
 10
287113
 20
6717442.16
  0
VERTEX
  8
cont
 10
287111
 20
6717443.76
  0
VERTEX
  8
cont
 10
287109
 20
6717444.5
  0
VERTEX
  8
cont
 10
287107
 20
6717446.04
  0
VERTEX
  8
cont
 10
287105.66
 20
6717448.32
  0
VERTEX
  8
cont
 10
287105
 20
6717449.7
  0
VERTEX
  8
cont
 10
287103.96
 20
6717451
  0
VERTEX
  8
cont
 10
287103
 20
6717451.96
  0
VERTEX
  8
cont
 10
287101.92
 20
6717453
  0
VERTEX
  8
cont
 10
287101
 20
6717453.68
  0
VERTEX
  8
cont
 10
287100.16
 20
6717453.82
  0
VERTEX
  8
cont
 10
287099
 20
6717454.04
  0
SEQEND
  0
POLYLINE
 66
1
  8
cont
  0
VERTEX
  8
cont
 10
287071
 20
6717447.98
  0
VERTEX
  8
cont
 10
287070.1
 20
6717449
  0
VERTEX
  8
cont
 10
287070.06
 20
6717449.92
  0
VERTEX
  8
cont
 10
287070.08
 20
6717451
  0
VERTEX
  8
cont
 10
287070.04
 20
6717451.94
  0
VERTEX
  8
cont
 10
287070.08
 20
6717453.9
  0
VERTEX
  8
cont
 10
287071.82
 20
6717454.16
  0
VERTEX
  8
cont
 10
287073.52
 20
6717454.46
  0
VERTEX
  8
cont
 10
287075.84
 20
6717454.14
  0
VERTEX
  8
cont
 10
287078.3
 20
6717453
  0
VERTEX
  8
cont
 10
287080.14
 20
6717451
  0
VERTEX
  8
cont
 10
287082.12
 20
6717449
  0
VERTEX
  8
cont
 10
287082.12
 20
6717447
  0
VERTEX
  8
cont
 10
287081
 20
6717445.96
  0
VERTEX
  8
cont
 10
287080.06
 20
6717445
  0
VERTEX
  8
cont
 10
287079
 20
6717443.78
  0
VERTEX
  8
cont
 10
287078.18
 20
6717443
  0
VERTEX
  8
cont
 10
287077
 20
6717441.9
  0
VERTEX
  8
cont
 10
287075
 20
6717442.08
  0
VERTEX
  8
cont
 10
287074.02
 20
6717443
  0
VERTEX
  8
cont
 10
287073.94
 20
6717444.04
  0
VERTEX
  8
cont
 10
287073.9
 20
6717445
  0
VERTEX
  8
cont
 10
287073
 20
6717445.88
  0
VERTEX
  8
cont
 10
287071.92
 20
6717447
  0
VERTEX
  8
cont
 10
287071
 20
6717447.98
  0
SEQEND
  0
ENDSEC
  0
EOF
