  0
SECTION
  2
HEADER
  9
$EXTMIN
 10
286965
 20
6717213
  9
$EXTMAX
 10
287284.99
 20
6717534.99
  0
ENDSEC
  0
SECTION
  2
ENTITIES
  0
POLYLINE
 66
1
  8
cliff3
  0
VERTEX
  8
cliff3
 10
286966.746288768
 20
6717401.9370384
  0
VERTEX
  8
cliff3
 10
286963.853711232
 20
6717402.46296159
  0
SEQEND
  0
POLYLINE
 66
1
  8
cliff3
  0
VERTEX
  8
cliff3
 10
286967.234994978
 20
6717402.26888777
  0
VERTEX
  8
cliff3
 10
286964.365005022
 20
6717401.63111223
  0
SEQEND
  0
POLYLINE
 66
1
  8
cliff3
  0
VERTEX
  8
cliff3
 10
286967.414807971
 20
6717402.75740399
  0
VERTEX
  8
cliff3
 10
286964.785192029
 20
6717401.44259601
  0
SEQEND
  0
POLYLINE
 66
1
  8
cliff3
  0
VERTEX
  8
cliff3
 10
286967.003821859
 20
6717401.82722921
  0
VERTEX
  8
cliff3
 10
286964.296178141
 20
6717402.97277079
  0
SEQEND
  0
POLYLINE
 66
1
  8
cliff3
  0
VERTEX
  8
cliff3
 10
286967.764922265
 20
6717402.62207686
  0
VERTEX
  8
cliff3
 10
286964.835077735
 20
6717402.37792315
  0
SEQEND
  0
POLYLINE
 66
1
  8
cliff3
  0
VERTEX
  8
cliff3
 10
286967.897108536
 20
6717402.55841224
  0
VERTEX
  8
cliff3
 10
286965.002891464
 20
6717402.04158776
  0
SEQEND
  0
POLYLINE
 66
1
  8
cliff3
  0
VERTEX
  8
cliff3
 10
286968.349999068
 20
6717401.85833349
  0
VERTEX
  8
cliff3
 10
286965.450000932
 20
6717402.34166651
  0
SEQEND
  0
POLYLINE
 66
1
  8
cliff3
  0
VERTEX
  8
cliff3
 10
286968.356923077
 20
6717401.13461539
  0
VERTEX
  8
cliff3
 10
286965.643076923
 20
6717402.26538462
  0
SEQEND
  0
POLYLINE
 66
1
  8
cliff3
  0
VERTEX
  8
cliff3
 10
286967.755225756
 20
6717401.79211061
  0
VERTEX
  8
cliff3
 10
286964.844774244
 20
6717402.20788939
  0
SEQEND
  0
POLYLINE
 66
1
  8
cliff3
  0
VERTEX
  8
cliff3
 10
286968.065318459
 20
6717402.26722548
  0
VERTEX
  8
cliff3
 10
286965.134681541
 20
6717402.03277452
  0
SEQEND
  0
POLYLINE
 66
1
  8
cliff3
  0
VERTEX
  8
cliff3
 10
286967.97
 20
6717401.95
  0
VERTEX
  8
cliff3
 10
286965.03
 20
6717401.95
  0
SEQEND
  0
POLYLINE
 66
1
  8
cliff3
  0
VERTEX
  8
cliff3
 10
286966.519063396
 20
6717402.55246655
  0
VERTEX
  8
cliff3
 10
286963.580936604
 20
6717402.44753345
  0
SEQEND
  0
POLYLINE
 66
1
  8
cliff3
  0
VERTEX
  8
cliff3
 10
286967.405225756
 20
6717407.74211061
  0
VERTEX
  8
cliff3
 10
286964.494774244
 20
6717408.15788939
  0
SEQEND
  0
POLYLINE
 66
1
  8
cliff3
  0
VERTEX
  8
cliff3
 10
286967.537369549
 20
6717407.99199224
  0
VERTEX
  8
cliff3
 10
286964.662630451
 20
6717408.60800776
  0
SEQEND
  0
POLYLINE
 66
1
  8
cliff3
  0
VERTEX
  8
cliff3
 10
286967.703821859
 20
6717407.62722921
  0
VERTEX
  8
cliff3
 10
286964.996178141
 20
6717408.77277079
  0
SEQEND
  0
POLYLINE
 66
1
  8
cliff3
  0
VERTEX
  8
cliff3
 10
286967.554804001
 20
6717407.27955621
  0
VERTEX
  8
cliff3
 10
286964.845195999
 20
6717408.42044379
  0
SEQEND
  0
POLYLINE
 66
1
  8
cliff3
  0
VERTEX
  8
cliff3
 10
286968.74826128
 20
6717406.79812847
  0
VERTEX
  8
cliff3
 10
286965.85173872
 20
6717407.30187153
  0
SEQEND
  0
POLYLINE
 66
1
  8
cliff3
  0
VERTEX
  8
cliff3
 10
286967.600063496
 20
6717407.70197968
  0
VERTEX
  8
cliff3
 10
286964.799936504
 20
6717408.59802032
  0
SEQEND
  0
POLYLINE
 66
1
  8
cliff3
  0
VERTEX
  8
cliff3
 10
286969.993549477
 20
6717401.72239433
  0
VERTEX
  8
cliff3
 10
286967.106450523
 20
6717402.27760567
  0
SEQEND
  0
POLYLINE
 66
1
  8
cliff3
  0
VERTEX
  8
cliff3
 10
286968.582512116
 20
6717401.09886712
  0
VERTEX
  8
cliff3
 10
286966.117487884
 20
6717402.70113288
  0
SEQEND
  0
POLYLINE
 66
1
  8
cliff3
  0
VERTEX
  8
cliff3
 10
286968.827204963
 20
6717402.01799764
  0
VERTEX
  8
cliff3
 10
286966.172795037
 20
6717403.28200236
  0
SEQEND
  0
POLYLINE
 66
1
  8
cliff3
  0
VERTEX
  8
cliff3
 10
286968.683303183
 20
6717401.68096638
  0
VERTEX
  8
cliff3
 10
286966.016696817
 20
6717402.91903362
  0
SEQEND
  0
POLYLINE
 66
1
  8
cliff3
  0
VERTEX
  8
cliff3
 10
286969.61270467
 20
6717402.34627047
  0
VERTEX
  8
cliff3
 10
286966.68729533
 20
6717402.05372953
  0
SEQEND
  0
POLYLINE
 66
1
  8
cliff3
  0
VERTEX
  8
cliff3
 10
286968.972018041
 20
6717406.67230075
  0
VERTEX
  8
cliff3
 10
286966.227981959
 20
6717407.72769925
  0
SEQEND
  0
POLYLINE
 66
1
  8
cliff3
  0
VERTEX
  8
cliff3
 10
286969.834994979
 20
6717407.46888777
  0
VERTEX
  8
cliff3
 10
286966.965005022
 20
6717406.83111223
  0
SEQEND
  0
POLYLINE
 66
1
  8
cliff3
  0
VERTEX
  8
cliff3
 10
286970.483898273
 20
6717407.02621652
  0
VERTEX
  8
cliff3
 10
286967.616101727
 20
6717407.67378348
  0
SEQEND
  0
POLYLINE
 66
1
  8
cliff3
  0
VERTEX
  8
cliff3
 10
286971.134994978
 20
6717407.86888777
  0
VERTEX
  8
cliff3
 10
286968.265005022
 20
6717407.23111223
  0
SEQEND
  0
POLYLINE
 66
1
  8
cliff3
  0
VERTEX
  8
cliff3
 10
286971.190524613
 20
6717408.50323608
  0
VERTEX
  8
cliff3
 10
286968.509475387
 20
6717407.29676392
  0
SEQEND
  0
POLYLINE
 66
1
  8
cliff3
  0
VERTEX
  8
cliff3
 10
286971.303777665
 20
6717408.8608771
  0
VERTEX
  8
cliff3
 10
286968.996222335
 20
6717407.0391229
  0
SEQEND
  0
POLYLINE
 66
1
  8
cliff3
  0
VERTEX
  8
cliff3
 10
286971.1612
 20
6717408.1116
  0
VERTEX
  8
cliff3
 10
286968.3388
 20
6717407.2884
  0
SEQEND
  0
POLYLINE
 66
1
  8
cliff3
  0
VERTEX
  8
cliff3
 10
286970.964922265
 20
6717407.82207686
  0
VERTEX
  8
cliff3
 10
286968.035077735
 20
6717407.57792315
  0
SEQEND
  0
POLYLINE
 66
1
  8
cliff3
  0
VERTEX
  8
cliff3
 10
286971.494564448
 20
6717408.86485482
  0
VERTEX
  8
cliff3
 10
286968.705435552
 20
6717407.93514518
  0
SEQEND
  0
POLYLINE
 66
1
  8
cliff3
  0
VERTEX
  8
cliff3
 10
286971.918913927
 20
6717408.55649669
  0
VERTEX
  8
cliff3
 10
286968.981086073
 20
6717408.44350331
  0
SEQEND
  0
POLYLINE
 66
1
  8
cliff3
  0
VERTEX
  8
cliff3
 10
286971.663963013
 20
6717408.13308755
  0
VERTEX
  8
cliff3
 10
286968.736036986
 20
6717407.86691245
  0
SEQEND
  0
POLYLINE
 66
1
  8
cliff3
  0
VERTEX
  8
cliff3
 10
286971.87369697
 20
6717408.57331313
  0
VERTEX
  8
cliff3
 10
286969.12630303
 20
6717407.52668687
  0
SEQEND
  0
POLYLINE
 66
1
  8
cliff3
  0
VERTEX
  8
cliff3
 10
286971.57
 20
6717407.8
  0
VERTEX
  8
cliff3
 10
286968.63
 20
6717407.8
  0
SEQEND
  0
POLYLINE
 66
1
  8
cliff3
  0
VERTEX
  8
cliff3
 10
286973.203279724
 20
6717399.97002797
  0
VERTEX
  8
cliff3
 10
286970.596720276
 20
6717401.32997203
  0
SEQEND
  0
POLYLINE
 66
1
  8
cliff3
  0
VERTEX
  8
cliff3
 10
286973.211355769
 20
6717400.29537357
  0
VERTEX
  8
cliff3
 10
286970.488644231
 20
6717401.40462642
  0
SEQEND
  0
POLYLINE
 66
1
  8
cliff3
  0
VERTEX
  8
cliff3
 10
286972.482
 20
6717405.774
  0
VERTEX
  8
cliff3
 10
286970.718
 20
6717408.126
  0
SEQEND
  0
POLYLINE
 66
1
  8
cliff3
  0
VERTEX
  8
cliff3
 10
286972.29254996
 20
6717405.6250786
  0
VERTEX
  8
cliff3
 10
286970.00745004
 20
6717407.4749214
  0
SEQEND
  0
POLYLINE
 66
1
  8
cliff3
  0
VERTEX
  8
cliff3
 10
286972.593549477
 20
6717408.02239433
  0
VERTEX
  8
cliff3
 10
286969.706450523
 20
6717408.57760567
  0
SEQEND
  0
POLYLINE
 66
1
  8
cliff3
  0
VERTEX
  8
cliff3
 10
286971.904270923
 20
6717406.35701035
  0
VERTEX
  8
cliff3
 10
286969.495729077
 20
6717408.04298965
  0
SEQEND
  0
POLYLINE
 66
1
  8
cliff3
  0
VERTEX
  8
cliff3
 10
286972.364860736
 20
6717406.65405571
  0
VERTEX
  8
cliff3
 10
286969.635139264
 20
6717407.74594429
  0
SEQEND
  0
POLYLINE
 66
1
  8
cliff3
  0
VERTEX
  8
cliff3
 10
286972.211355769
 20
6717406.29537357
  0
VERTEX
  8
cliff3
 10
286969.488644231
 20
6717407.40462642
  0
SEQEND
  0
POLYLINE
 66
1
  8
cliff3
  0
VERTEX
  8
cliff3
 10
286971.917706015
 20
6717406.45704834
  0
VERTEX
  8
cliff3
 10
286969.582293985
 20
6717408.24295166
  0
SEQEND
  0
POLYLINE
 66
1
  8
cliff3
  0
VERTEX
  8
cliff3
 10
286971.749555987
 20
6717406.15031451
  0
VERTEX
  8
cliff3
 10
286969.350444013
 20
6717407.84968549
  0
SEQEND
  0
POLYLINE
 66
1
  8
cliff3
  0
VERTEX
  8
cliff3
 10
286973.005225756
 20
6717407.35788939
  0
VERTEX
  8
cliff3
 10
286970.094774244
 20
6717406.94211061
  0
SEQEND
  0
POLYLINE
 66
1
  8
cliff3
  0
VERTEX
  8
cliff3
 10
286972.646288768
 20
6717406.83703841
  0
VERTEX
  8
cliff3
 10
286969.753711232
 20
6717407.36296159
  0
SEQEND
  0
POLYLINE
 66
1
  8
cliff3
  0
VERTEX
  8
cliff3
 10
286972.539446968
 20
6717406.06055303
  0
VERTEX
  8
cliff3
 10
286970.460553032
 20
6717408.13944697
  0
SEQEND
  0
POLYLINE
 66
1
  8
cliff3
  0
VERTEX
  8
cliff3
 10
286973.429364382
 20
6717406.54181312
  0
VERTEX
  8
cliff3
 10
286970.670635618
 20
6717407.55818688
  0
SEQEND
  0
POLYLINE
 66
1
  8
cliff3
  0
VERTEX
  8
cliff3
 10
286972.904270923
 20
6717406.15701035
  0
VERTEX
  8
cliff3
 10
286970.495729077
 20
6717407.84298965
  0
SEQEND
  0
POLYLINE
 66
1
  8
cliff3
  0
VERTEX
  8
cliff3
 10
286976.100263116
 20
6717295.17279357
  0
VERTEX
  8
cliff3
 10
286974.099736884
 20
6717297.32720643
  0
SEQEND
  0
POLYLINE
 66
1
  8
cliff3
  0
VERTEX
  8
cliff3
 10
286976.370050797
 20
6717295.64795682
  0
VERTEX
  8
cliff3
 10
286974.129949203
 20
6717297.55204318
  0
SEQEND
  0
POLYLINE
 66
1
  8
cliff3
  0
VERTEX
  8
cliff3
 10
286976.62159957
 20
6717401.12589485
  0
VERTEX
  8
cliff3
 10
286973.77840043
 20
6717401.87410515
  0
SEQEND
  0
POLYLINE
 66
1
  8
cliff3
  0
VERTEX
  8
cliff3
 10
286976.864860736
 20
6717401.05405571
  0
VERTEX
  8
cliff3
 10
286974.135139264
 20
6717402.14594429
  0
SEQEND
  0
POLYLINE
 66
1
  8
cliff3
  0
VERTEX
  8
cliff3
 10
286976.753255219
 20
6717400.67589173
  0
VERTEX
  8
cliff3
 10
286974.046744781
 20
6717401.82410827
  0
SEQEND
  0
POLYLINE
 66
1
  8
cliff3
  0
VERTEX
  8
cliff3
 10
286977.667736719
 20
6717401.18154093
  0
VERTEX
  8
cliff3
 10
286974.732263281
 20
6717401.01845907
  0
SEQEND
  0
POLYLINE
 66
1
  8
cliff3
  0
VERTEX
  8
cliff3
 10
286976.923935012
 20
6717400.51652227
  0
VERTEX
  8
cliff3
 10
286974.376064988
 20
6717401.98347773
  0
SEQEND
  0
POLYLINE
 66
1
  8
cliff3
  0
VERTEX
  8
cliff3
 10
286977.914922265
 20
6717400.97792314
  0
VERTEX
  8
cliff3
 10
286974.985077735
 20
6717401.22207685
  0
SEQEND
  0
POLYLINE
 66
1
  8
cliff3
  0
VERTEX
  8
cliff3
 10
286978.130923237
 20
6717400.66331218
  0
VERTEX
  8
cliff3
 10
286975.269076762
 20
6717401.33668782
  0
SEQEND
  0
POLYLINE
 66
1
  8
cliff3
  0
VERTEX
  8
cliff3
 10
286983.04321638
 20
6717400.0706678
  0
VERTEX
  8
cliff3
 10
286980.15678362
 20
6717400.6293322
  0
SEQEND
  0
POLYLINE
 66
1
  8
cliff3
  0
VERTEX
  8
cliff3
 10
286983.559931388
 20
6717400.37175663
  0
VERTEX
  8
cliff3
 10
286980.640068612
 20
6717400.02824337
  0
SEQEND
  0
POLYLINE
 66
1
  8
cliff3
  0
VERTEX
  8
cliff3
 10
286983.806825875
 20
6717400.67631087
  0
VERTEX
  8
cliff3
 10
286980.993174126
 20
6717399.82368913
  0
SEQEND
  0
POLYLINE
 66
1
  8
cliff3
  0
VERTEX
  8
cliff3
 10
286983.605225756
 20
6717400.35788939
  0
VERTEX
  8
cliff3
 10
286980.694774244
 20
6717399.94211061
  0
SEQEND
  0
POLYLINE
 66
1
  8
cliff3
  0
VERTEX
  8
cliff3
 10
286984.004357929
 20
6717399.98612383
  0
VERTEX
  8
cliff3
 10
286981.095642071
 20
6717400.41387617
  0
SEQEND
  0
POLYLINE
 66
1
  8
cliff3
  0
VERTEX
  8
cliff3
 10
286984.319325533
 20
6717400.29452502
  0
VERTEX
  8
cliff3
 10
286981.380674467
 20
6717400.20547498
  0
SEQEND
  0
POLYLINE
 66
1
  8
cliff3
  0
VERTEX
  8
cliff3
 10
286984.060493029
 20
6717399.98308651
  0
VERTEX
  8
cliff3
 10
286981.139506971
 20
6717400.31691349
  0
SEQEND
  0
POLYLINE
 66
1
  8
cliff3
  0
VERTEX
  8
cliff3
 10
286984.211355769
 20
6717399.29537357
  0
VERTEX
  8
cliff3
 10
286981.488644231
 20
6717400.40462642
  0
SEQEND
  0
POLYLINE
 66
1
  8
cliff3
  0
VERTEX
  8
cliff3
 10
286984.593549477
 20
6717399.62239433
  0
VERTEX
  8
cliff3
 10
286981.706450523
 20
6717400.17760567
  0
SEQEND
  0
POLYLINE
 66
1
  8
cliff3
  0
VERTEX
  8
cliff3
 10
286984.28436061
 20
6717399.3055855
  0
VERTEX
  8
cliff3
 10
286981.51563939
 20
6717400.2944145
  0
SEQEND
  0
POLYLINE
 66
1
  8
cliff3
  0
VERTEX
  8
cliff3
 10
286985.134994978
 20
6717400.16888777
  0
VERTEX
  8
cliff3
 10
286982.265005022
 20
6717399.53111223
  0
SEQEND
  0
POLYLINE
 66
1
  8
cliff3
  0
VERTEX
  8
cliff3
 10
286984.728619655
 20
6717399.90366796
  0
VERTEX
  8
cliff3
 10
286981.871380345
 20
6717400.59633204
  0
SEQEND
  0
POLYLINE
 66
1
  8
cliff3
  0
VERTEX
  8
cliff3
 10
286984.42801515
 20
6717399.6381658
  0
VERTEX
  8
cliff3
 10
286981.67198485
 20
6717400.6618342
  0
SEQEND
  0
POLYLINE
 66
1
  8
cliff3
  0
VERTEX
  8
cliff3
 10
286985.31431088
 20
6717400.3292039
  0
VERTEX
  8
cliff3
 10
286982.38568912
 20
6717400.0707961
  0
SEQEND
  0
POLYLINE
 66
1
  8
cliff3
  0
VERTEX
  8
cliff3
 10
286999.219126819
 20
6717441.09934045
  0
VERTEX
  8
cliff3
 10
286996.280873181
 20
6717441.20065955
  0
SEQEND
  0
POLYLINE
 66
1
  8
cliff3
  0
VERTEX
  8
cliff3
 10
286998.7612
 20
6717441.3116
  0
VERTEX
  8
cliff3
 10
286995.9388
 20
6717440.4884
  0
SEQEND
  0
POLYLINE
 66
1
  8
cliff3
  0
VERTEX
  8
cliff3
 10
286996.365384615
 20
6717440.24307692
  0
VERTEX
  8
cliff3
 10
286995.234615385
 20
6717442.95692308
  0
SEQEND
  0
POLYLINE
 66
1
  8
cliff3
  0
VERTEX
  8
cliff3
 10
286999.542025763
 20
6717438.9044869
  0
VERTEX
  8
cliff3
 10
286998.357974237
 20
6717441.5955131
  0
SEQEND
  0
POLYLINE
 66
1
  8
cliff3
  0
VERTEX
  8
cliff3
 10
286999.334647256
 20
6717438.89917021
  0
VERTEX
  8
cliff3
 10
286997.965352744
 20
6717441.50082979
  0
SEQEND
  0
POLYLINE
 66
1
  8
cliff3
  0
VERTEX
  8
cliff3
 10
286999.578490678
 20
6717440.5394479
  0
VERTEX
  8
cliff3
 10
286996.821509322
 20
6717441.5605521
  0
SEQEND
  0
POLYLINE
 66
1
  8
cliff3
  0
VERTEX
  8
cliff3
 10
286998.580085356
 20
6717440.53679833
  0
VERTEX
  8
cliff3
 10
286996.919914644
 20
6717442.96320167
  0
SEQEND
  0
POLYLINE
 66
1
  8
cliff3
  0
VERTEX
  8
cliff3
 10
286999.841071068
 20
6717439.57071472
  0
VERTEX
  8
cliff3
 10
286997.958928932
 20
6717441.82928528
  0
SEQEND
  0
POLYLINE
 66
1
  8
cliff3
  0
VERTEX
  8
cliff3
 10
286999.925223407
 20
6717439.35102896
  0
VERTEX
  8
cliff3
 10
286998.374776593
 20
6717441.84897104
  0
SEQEND
  0
POLYLINE
 66
1
  8
cliff3
  0
VERTEX
  8
cliff3
 10
286999.640182387
 20
6717440.01079303
  0
VERTEX
  8
cliff3
 10
286997.159817613
 20
6717441.58920697
  0
SEQEND
  0
POLYLINE
 66
1
  8
cliff3
  0
VERTEX
  8
cliff3
 10
287000.295424547
 20
6717440.28232879
  0
VERTEX
  8
cliff3
 10
286997.404575453
 20
6717440.81767121
  0
SEQEND
  0
POLYLINE
 66
1
  8
cliff3
  0
VERTEX
  8
cliff3
 10
286998.432925319
 20
6717440.11158971
  0
VERTEX
  8
cliff3
 10
286997.467074681
 20
6717442.88841029
  0
SEQEND
  0
POLYLINE
 66
1
  8
cliff3
  0
VERTEX
  8
cliff3
 10
286999.481496333
 20
6717440.2976377
  0
VERTEX
  8
cliff3
 10
286996.718503667
 20
6717441.3023623
  0
SEQEND
  0
POLYLINE
 66
1
  8
cliff3
  0
VERTEX
  8
cliff3
 10
287002.204270923
 20
6717438.35701035
  0
VERTEX
  8
cliff3
 10
286999.795729077
 20
6717440.04298965
  0
SEQEND
  0
POLYLINE
 66
1
  8
cliff3
  0
VERTEX
  8
cliff3
 10
287006.79305824
 20
6717435.07059067
  0
VERTEX
  8
cliff3
 10
287006.10694176
 20
6717437.92940933
  0
SEQEND
  0
POLYLINE
 66
1
  8
cliff3
  0
VERTEX
  8
cliff3
 10
287013.65
 20
6717451.43
  0
VERTEX
  8
cliff3
 10
287013.65
 20
6717454.37
  0
SEQEND
  0
POLYLINE
 66
1
  8
cliff3
  0
VERTEX
  8
cliff3
 10
287014.457889394
 20
6717451.29477424
  0
VERTEX
  8
cliff3
 10
287014.042110606
 20
6717454.20522576
  0
SEQEND
  0
POLYLINE
 66
1
  8
cliff3
  0
VERTEX
  8
cliff3
 10
287013.30745004
 20
6717453.0250786
  0
VERTEX
  8
cliff3
 10
287015.59254996
 20
6717454.8749214
  0
SEQEND
  0
POLYLINE
 66
1
  8
cliff3
  0
VERTEX
  8
cliff3
 10
287025.081287577
 20
6717423.74698636
  0
VERTEX
  8
cliff3
 10
287022.618712423
 20
6717425.35301364
  0
SEQEND
  0
POLYLINE
 66
1
  8
cliff3
  0
VERTEX
  8
cliff3
 10
287025.260514601
 20
6717424.14369124
  0
VERTEX
  8
cliff3
 10
287022.739485399
 20
6717425.65630876
  0
SEQEND
  0
POLYLINE
 66
1
  8
cliff3
  0
VERTEX
  8
cliff3
 10
287024.972018041
 20
6717424.17230075
  0
VERTEX
  8
cliff3
 10
287022.227981959
 20
6717425.22769925
  0
SEQEND
  0
POLYLINE
 66
1
  8
cliff3
  0
VERTEX
  8
cliff3
 10
287025.474446773
 20
6717423.23295952
  0
VERTEX
  8
cliff3
 10
287023.825553227
 20
6717425.66704048
  0
SEQEND
  0
POLYLINE
 66
1
  8
cliff3
  0
VERTEX
  8
cliff3
 10
287025.064612395
 20
6717423.01115796
  0
VERTEX
  8
cliff3
 10
287023.335387604
 20
6717425.38884204
  0
SEQEND
  0
POLYLINE
 66
1
  8
cliff3
  0
VERTEX
  8
cliff3
 10
287025.349535095
 20
6717423.37782216
  0
VERTEX
  8
cliff3
 10
287023.450464905
 20
6717425.62217784
  0
SEQEND
  0
POLYLINE
 66
1
  8
cliff3
  0
VERTEX
  8
cliff3
 10
287028.828932613
 20
6717412.37527152
  0
VERTEX
  8
cliff3
 10
287026.271067387
 20
6717413.82472848
  0
SEQEND
  0
POLYLINE
 66
1
  8
cliff3
  0
VERTEX
  8
cliff3
 10
287028.940182387
 20
6717412.71079303
  0
VERTEX
  8
cliff3
 10
287026.459817613
 20
6717414.28920697
  0
SEQEND
  0
POLYLINE
 66
1
  8
cliff3
  0
VERTEX
  8
cliff3
 10
287029.157520147
 20
6717412.02894606
  0
VERTEX
  8
cliff3
 10
287027.042479853
 20
6717414.07105394
  0
SEQEND
  0
POLYLINE
 66
1
  8
cliff3
  0
VERTEX
  8
cliff3
 10
287029.195492367
 20
6717412.32441385
  0
VERTEX
  8
cliff3
 10
287027.304507633
 20
6717414.57558615
  0
SEQEND
  0
POLYLINE
 66
1
  8
cliff3
  0
VERTEX
  8
cliff3
 10
287029.376785107
 20
6717412.5059368
  0
VERTEX
  8
cliff3
 10
287027.123214893
 20
6717414.3940632
  0
SEQEND
  0
POLYLINE
 66
1
  8
cliff3
  0
VERTEX
  8
cliff3
 10
287029.457520147
 20
6717412.82894606
  0
VERTEX
  8
cliff3
 10
287027.342479853
 20
6717414.87105394
  0
SEQEND
  0
POLYLINE
 66
1
  8
cliff3
  0
VERTEX
  8
cliff3
 10
287029.690057595
 20
6717412.71375741
  0
VERTEX
  8
cliff3
 10
287027.509942405
 20
6717414.68624259
  0
SEQEND
  0
POLYLINE
 66
1
  8
cliff3
  0
VERTEX
  8
cliff3
 10
287029.774274956
 20
6717413.04559931
  0
VERTEX
  8
cliff3
 10
287027.725725044
 20
6717415.15440069
  0
SEQEND
  0
POLYLINE
 66
1
  8
cliff3
  0
VERTEX
  8
cliff3
 10
287029.489446968
 20
6717412.31055303
  0
VERTEX
  8
cliff3
 10
287027.410553032
 20
6717414.38944697
  0
SEQEND
  0
POLYLINE
 66
1
  8
cliff3
  0
VERTEX
  8
cliff3
 10
287029.54796028
 20
6717412.62649152
  0
VERTEX
  8
cliff3
 10
287027.65203972
 20
6717414.87350848
  0
SEQEND
  0
POLYLINE
 66
1
  8
cliff3
  0
VERTEX
  8
cliff3
 10
287029.268001774
 20
6717411.89371226
  0
VERTEX
  8
cliff3
 10
287027.331998226
 20
6717414.10628774
  0
SEQEND
  0
POLYLINE
 66
1
  8
cliff3
  0
VERTEX
  8
cliff3
 10
287029.284567445
 20
6717412.18987721
  0
VERTEX
  8
cliff3
 10
287027.615432555
 20
6717414.6101228
  0
SEQEND
  0
POLYLINE
 66
1
  8
cliff3
  0
VERTEX
  8
cliff3
 10
287030.652172357
 20
6717412.66790972
  0
VERTEX
  8
cliff3
 10
287028.047827643
 20
6717414.03209028
  0
SEQEND
  0
POLYLINE
 66
1
  8
cliff3
  0
VERTEX
  8
cliff3
 10
287029.07217664
 20
6717412.76347668
  0
VERTEX
  8
cliff3
 10
287026.52782336
 20
6717414.23652332
  0
SEQEND
  0
POLYLINE
 66
1
  8
cliff3
  0
VERTEX
  8
cliff3
 10
287029.191884041
 20
6717413.11347344
  0
VERTEX
  8
cliff3
 10
287026.708115959
 20
6717414.68652656
  0
SEQEND
  0
POLYLINE
 66
1
  8
cliff3
  0
VERTEX
  8
cliff3
 10
287029.228494623
 20
6717413.67071307
  0
VERTEX
  8
cliff3
 10
287026.571505377
 20
6717414.92928693
  0
SEQEND
  0
POLYLINE
 66
1
  8
cliff3
  0
VERTEX
  8
cliff3
 10
287030.993315204
 20
6717412.31638341
  0
VERTEX
  8
cliff3
 10
287029.006684796
 20
6717414.48361659
  0
SEQEND
  0
POLYLINE
 66
1
  8
cliff3
  0
VERTEX
  8
cliff3
 10
287032.858648479
 20
6717413.08233106
  0
VERTEX
  8
cliff3
 10
287029.941351521
 20
6717412.71766894
  0
SEQEND
  0
POLYLINE
 66
1
  8
cliff3
  0
VERTEX
  8
cliff3
 10
287031.225884143
 20
6717412.74831476
  0
VERTEX
  8
cliff3
 10
287029.074115858
 20
6717414.75168524
  0
SEQEND
  0
POLYLINE
 66
1
  8
cliff3
  0
VERTEX
  8
cliff3
 10
287033.019517003
 20
6717413.28767992
  0
VERTEX
  8
cliff3
 10
287030.080482997
 20
6717413.21232008
  0
SEQEND
  0
POLYLINE
 66
1
  8
cliff3
  0
VERTEX
  8
cliff3
 10
287031.508420562
 20
6717412.11196261
  0
VERTEX
  8
cliff3
 10
287030.091579438
 20
6717414.68803739
  0
SEQEND
  0
POLYLINE
 66
1
  8
cliff3
  0
VERTEX
  8
cliff3
 10
287034.633042005
 20
6717413.07755246
  0
VERTEX
  8
cliff3
 10
287031.766957995
 20
6717412.42244754
  0
SEQEND
  0
POLYLINE
 66
1
  8
cliff3
  0
VERTEX
  8
cliff3
 10
287033.576403891
 20
6717412.38384854
  0
VERTEX
  8
cliff3
 10
287030.823596109
 20
6717413.41615146
  0
SEQEND
  0
POLYLINE
 66
1
  8
cliff3
  0
VERTEX
  8
cliff3
 10
287033.726403891
 20
6717412.78384854
  0
VERTEX
  8
cliff3
 10
287030.973596109
 20
6717413.81615146
  0
SEQEND
  0
POLYLINE
 66
1
  8
cliff3
  0
VERTEX
  8
cliff3
 10
287035.019517003
 20
6717412.98767992
  0
VERTEX
  8
cliff3
 10
287032.080482997
 20
6717412.91232008
  0
SEQEND
  0
POLYLINE
 66
1
  8
cliff3
  0
VERTEX
  8
cliff3
 10
287033.850045587
 20
6717412.41386483
  0
VERTEX
  8
cliff3
 10
287031.249954413
 20
6717413.78613517
  0
SEQEND
  0
POLYLINE
 66
1
  8
cliff3
  0
VERTEX
  8
cliff3
 10
287031.487886261
 20
6717412.61806831
  0
VERTEX
  8
cliff3
 10
287029.612113739
 20
6717414.88193169
  0
SEQEND
  0
POLYLINE
 66
1
  8
cliff3
  0
VERTEX
  8
cliff3
 10
287033.396878674
 20
6717412.99030383
  0
VERTEX
  8
cliff3
 10
287030.503121326
 20
6717413.50969617
  0
SEQEND
  0
POLYLINE
 66
1
  8
cliff3
  0
VERTEX
  8
cliff3
 10
287033.472018041
 20
6717423.27230075
  0
VERTEX
  8
cliff3
 10
287030.727981959
 20
6717424.32769925
  0
SEQEND
  0
POLYLINE
 66
1
  8
cliff3
  0
VERTEX
  8
cliff3
 10
287033.612461709
 20
6717422.38425083
  0
VERTEX
  8
cliff3
 10
287031.587538291
 20
6717424.51574917
  0
SEQEND
  0
POLYLINE
 66
1
  8
cliff3
  0
VERTEX
  8
cliff3
 10
287033.80354887
 20
6717422.77887699
  0
VERTEX
  8
cliff3
 10
287031.59645113
 20
6717424.72112301
  0
SEQEND
  0
POLYLINE
 66
1
  8
cliff3
  0
VERTEX
  8
cliff3
 10
287033.860984632
 20
6717423.03284955
  0
VERTEX
  8
cliff3
 10
287031.839015368
 20
6717425.16715045
  0
SEQEND
  0
POLYLINE
 66
1
  8
cliff3
  0
VERTEX
  8
cliff3
 10
287033.33686495
 20
6717423.13267561
  0
VERTEX
  8
cliff3
 10
287030.96313505
 20
6717424.86732439
  0
SEQEND
  0
POLYLINE
 66
1
  8
cliff3
  0
VERTEX
  8
cliff3
 10
287033.645775556
 20
6717423.20583452
  0
VERTEX
  8
cliff3
 10
287031.054224444
 20
6717424.59416548
  0
SEQEND
  0
POLYLINE
 66
1
  8
cliff3
  0
VERTEX
  8
cliff3
 10
287033.776317419
 20
6717423.52067576
  0
VERTEX
  8
cliff3
 10
287031.223682581
 20
6717424.97932424
  0
SEQEND
  0
POLYLINE
 66
1
  8
cliff3
  0
VERTEX
  8
cliff3
 10
287032.181546578
 20
6717424.76597246
  0
VERTEX
  8
cliff3
 10
287029.318453422
 20
6717425.43402753
  0
SEQEND
  0
POLYLINE
 66
1
  8
cliff3
  0
VERTEX
  8
cliff3
 10
287032.006825875
 20
6717424.52368913
  0
VERTEX
  8
cliff3
 10
287029.193174125
 20
6717425.37631087
  0
SEQEND
  0
POLYLINE
 66
1
  8
cliff3
  0
VERTEX
  8
cliff3
 10
287032.457100798
 20
6717425.32459743
  0
VERTEX
  8
cliff3
 10
287029.642899202
 20
6717426.17540257
  0
SEQEND
  0
POLYLINE
 66
1
  8
cliff3
  0
VERTEX
  8
cliff3
 10
287032.411905868
 20
6717424.64672574
  0
VERTEX
  8
cliff3
 10
287029.688094132
 20
6717425.75327426
  0
SEQEND
  0
POLYLINE
 66
1
  8
cliff3
  0
VERTEX
  8
cliff3
 10
287032.236927479
 20
6717424.43883315
  0
VERTEX
  8
cliff3
 10
287029.563072521
 20
6717425.66116685
  0
SEQEND
  0
POLYLINE
 66
1
  8
cliff3
  0
VERTEX
  8
cliff3
 10
287033.267736719
 20
6717425.08154093
  0
VERTEX
  8
cliff3
 10
287030.332263281
 20
6717424.91845907
  0
SEQEND
  0
POLYLINE
 66
1
  8
cliff3
  0
VERTEX
  8
cliff3
 10
287032.083303183
 20
6717424.08096638
  0
VERTEX
  8
cliff3
 10
287029.416696817
 20
6717425.31903362
  0
SEQEND
  0
POLYLINE
 66
1
  8
cliff3
  0
VERTEX
  8
cliff3
 10
287032.74787715
 20
6717424.18169828
  0
VERTEX
  8
cliff3
 10
287030.45212285
 20
6717426.01830172
  0
SEQEND
  0
POLYLINE
 66
1
  8
cliff3
  0
VERTEX
  8
cliff3
 10
287032.58771723
 20
6717424.01914045
  0
VERTEX
  8
cliff3
 10
287030.31228277
 20
6717425.88085955
  0
SEQEND
  0
POLYLINE
 66
1
  8
cliff3
  0
VERTEX
  8
cliff3
 10
287033.771056685
 20
6717424.52383794
  0
VERTEX
  8
cliff3
 10
287030.928943315
 20
6717425.27616206
  0
SEQEND
  0
POLYLINE
 66
1
  8
cliff3
  0
VERTEX
  8
cliff3
 10
287033.976317419
 20
6717423.87067576
  0
VERTEX
  8
cliff3
 10
287031.423682581
 20
6717425.32932424
  0
SEQEND
  0
POLYLINE
 66
1
  8
cliff3
  0
VERTEX
  8
cliff3
 10
287032.76965328
 20
6717423.84112929
  0
VERTEX
  8
cliff3
 10
287030.73034672
 20
6717425.95887071
  0
SEQEND
  0
POLYLINE
 66
1
  8
cliff3
  0
VERTEX
  8
cliff3
 10
287033.864860736
 20
6717424.15405571
  0
VERTEX
  8
cliff3
 10
287031.135139264
 20
6717425.24594429
  0
SEQEND
  0
POLYLINE
 66
1
  8
cliff3
  0
VERTEX
  8
cliff3
 10
287034.049249843
 20
6717424.46654061
  0
VERTEX
  8
cliff3
 10
287031.350750157
 20
6717425.63345939
  0
SEQEND
  0
POLYLINE
 66
1
  8
cliff3
  0
VERTEX
  8
cliff3
 10
287032.623935012
 20
6717424.51652227
  0
VERTEX
  8
cliff3
 10
287030.076064988
 20
6717425.98347773
  0
SEQEND
  0
POLYLINE
 66
1
  8
cliff3
  0
VERTEX
  8
cliff3
 10
287032.454324295
 20
6717424.33346849
  0
VERTEX
  8
cliff3
 10
287029.945675704
 20
6717425.86653151
  0
SEQEND
  0
POLYLINE
 66
1
  8
cliff3
  0
VERTEX
  8
cliff3
 10
287033.56148436
 20
6717424.89200169
  0
VERTEX
  8
cliff3
 10
287030.63851564
 20
6717425.20799831
  0
SEQEND
  0
POLYLINE
 66
1
  8
cliff3
  0
VERTEX
  8
cliff3
 10
287032.040614919
 20
6717423.88783058
  0
VERTEX
  8
cliff3
 10
287029.659385081
 20
6717425.61216942
  0
SEQEND
  0
POLYLINE
 66
1
  8
cliff3
  0
VERTEX
  8
cliff3
 10
287032.423292812
 20
6717424.16540799
  0
VERTEX
  8
cliff3
 10
287029.876707188
 20
6717425.63459201
  0
SEQEND
  0
POLYLINE
 66
1
  8
cliff3
  0
VERTEX
  8
cliff3
 10
287032.248971044
 20
6717423.97477659
  0
VERTEX
  8
cliff3
 10
287029.751028956
 20
6717425.52522341
  0
SEQEND
  0
POLYLINE
 66
1
  8
cliff3
  0
VERTEX
  8
cliff3
 10
287033.37
 20
6717424.7
  0
VERTEX
  8
cliff3
 10
287030.43
 20
6717424.7
  0
SEQEND
  0
POLYLINE
 66
1
  8
cliff3
  0
VERTEX
  8
cliff3
 10
287032.549249843
 20
6717424.86654061
  0
VERTEX
  8
cliff3
 10
287029.850750157
 20
6717426.03345939
  0
SEQEND
  0
POLYLINE
 66
1
  8
cliff3
  0
VERTEX
  8
cliff3
 10
287032.377817931
 20
6717424.66928648
  0
VERTEX
  8
cliff3
 10
287029.722182069
 20
6717425.93071352
  0
SEQEND
  0
POLYLINE
 66
1
  8
cliff3
  0
VERTEX
  8
cliff3
 10
287033.419562955
 20
6717425.214157
  0
VERTEX
  8
cliff3
 10
287030.480437045
 20
6717425.285843
  0
SEQEND
  0
POLYLINE
 66
1
  8
cliff3
  0
VERTEX
  8
cliff3
 10
287032.199999068
 20
6717425.45833349
  0
VERTEX
  8
cliff3
 10
287029.300000932
 20
6717425.94166651
  0
SEQEND
  0
POLYLINE
 66
1
  8
cliff3
  0
VERTEX
  8
cliff3
 10
287032.034994978
 20
6717425.23111223
  0
VERTEX
  8
cliff3
 10
287029.165005022
 20
6717425.86888777
  0
SEQEND
  0
POLYLINE
 66
1
  8
cliff3
  0
VERTEX
  8
cliff3
 10
287035.615898563
 20
6717412.75486552
  0
VERTEX
  8
cliff3
 10
287032.784101437
 20
6717413.54513448
  0
SEQEND
  0
POLYLINE
 66
1
  8
cliff3
  0
VERTEX
  8
cliff3
 10
287034.34787715
 20
6717412.38169828
  0
VERTEX
  8
cliff3
 10
287032.05212285
 20
6717414.21830172
  0
SEQEND
  0
POLYLINE
 66
1
  8
cliff3
  0
VERTEX
  8
cliff3
 10
287035.760267287
 20
6717413.1352155
  0
VERTEX
  8
cliff3
 10
287032.939732713
 20
6717413.9647845
  0
SEQEND
  0
POLYLINE
 66
1
  8
cliff3
  0
VERTEX
  8
cliff3
 10
287036.009276805
 20
6717412.99029779
  0
VERTEX
  8
cliff3
 10
287033.290723195
 20
6717414.10970221
  0
SEQEND
  0
POLYLINE
 66
1
  8
cliff3
  0
VERTEX
  8
cliff3
 10
287034.767749307
 20
6717412.7452558
  0
VERTEX
  8
cliff3
 10
287032.532250693
 20
6717414.6547442
  0
SEQEND
  0
POLYLINE
 66
1
  8
cliff3
  0
VERTEX
  8
cliff3
 10
287035.860554026
 20
6717412.64340972
  0
VERTEX
  8
cliff3
 10
287033.139445974
 20
6717413.75659028
  0
SEQEND
  0
POLYLINE
 66
1
  8
cliff3
  0
VERTEX
  8
cliff3
 10
287034.578142536
 20
6717412.35074594
  0
VERTEX
  8
cliff3
 10
287032.421857464
 20
6717414.34925406
  0
SEQEND
  0
POLYLINE
 66
1
  8
cliff3
  0
VERTEX
  8
cliff3
 10
287035.679168747
 20
6717413.35594086
  0
VERTEX
  8
cliff3
 10
287032.820831253
 20
6717414.04405914
  0
SEQEND
  0
POLYLINE
 66
1
  8
cliff3
  0
VERTEX
  8
cliff3
 10
287034.484168131
 20
6717413.05142062
  0
VERTEX
  8
cliff3
 10
287032.015831869
 20
6717414.64857938
  0
SEQEND
  0
POLYLINE
 66
1
  8
cliff3
  0
VERTEX
  8
cliff3
 10
287034.10354887
 20
6717423.47887699
  0
VERTEX
  8
cliff3
 10
287031.89645113
 20
6717425.42112301
  0
SEQEND
  0
POLYLINE
 66
1
  8
cliff3
  0
VERTEX
  8
cliff3
 10
287033.897071751
 20
6717422.61983894
  0
VERTEX
  8
cliff3
 10
287031.902928249
 20
6717424.78016106
  0
SEQEND
  0
POLYLINE
 66
1
  8
cliff3
  0
VERTEX
  8
cliff3
 10
287033.92375486
 20
6717422.86786107
  0
VERTEX
  8
cliff3
 10
287032.17624514
 20
6717425.23213893
  0
SEQEND
  0
POLYLINE
 66
1
  8
cliff3
  0
VERTEX
  8
cliff3
 10
287036.455671877
 20
6717422.88567799
  0
VERTEX
  8
cliff3
 10
287033.944328123
 20
6717424.41432201
  0
SEQEND
  0
POLYLINE
 66
1
  8
cliff3
  0
VERTEX
  8
cliff3
 10
287035.229324239
 20
6717422.72368258
  0
VERTEX
  8
cliff3
 10
287033.770675761
 20
6717425.27631742
  0
SEQEND
  0
POLYLINE
 66
1
  8
cliff3
  0
VERTEX
  8
cliff3
 10
287035.297023545
 20
6717421.05669702
  0
VERTEX
  8
cliff3
 10
287034.102976455
 20
6717423.74330298
  0
SEQEND
  0
POLYLINE
 66
1
  8
cliff3
  0
VERTEX
  8
cliff3
 10
287036.123655548
 20
6717421.00642647
  0
VERTEX
  8
cliff3
 10
287034.276344452
 20
6717423.29357354
  0
SEQEND
  0
POLYLINE
 66
1
  8
cliff3
  0
VERTEX
  8
cliff3
 10
287036.114322012
 20
6717421.24432812
  0
VERTEX
  8
cliff3
 10
287034.585677988
 20
6717423.75567188
  0
SEQEND
  0
POLYLINE
 66
1
  8
cliff3
  0
VERTEX
  8
cliff3
 10
287036.496879547
 20
6717421.27558054
  0
VERTEX
  8
cliff3
 10
287034.603120453
 20
6717423.52441946
  0
SEQEND
  0
POLYLINE
 66
1
  8
cliff3
  0
VERTEX
  8
cliff3
 10
287037.875968062
 20
6717410.78399146
  0
VERTEX
  8
cliff3
 10
287036.224031938
 20
6717413.21600854
  0
SEQEND
  0
POLYLINE
 66
1
  8
cliff3
  0
VERTEX
  8
cliff3
 10
287038.24387301
 20
6717410.83299913
  0
VERTEX
  8
cliff3
 10
287036.45612699
 20
6717413.16700087
  0
SEQEND
  0
POLYLINE
 66
1
  8
cliff3
  0
VERTEX
  8
cliff3
 10
287038.158497725
 20
6717410.53546776
  0
VERTEX
  8
cliff3
 10
287036.241502275
 20
6717412.76453224
  0
SEQEND
  0
POLYLINE
 66
1
  8
cliff3
  0
VERTEX
  8
cliff3
 10
287038.058744028
 20
6717410.23073133
  0
VERTEX
  8
cliff3
 10
287036.041255973
 20
6717412.36926867
  0
SEQEND
  0
POLYLINE
 66
1
  8
cliff3
  0
VERTEX
  8
cliff3
 10
287037.948604554
 20
6717409.91979202
  0
VERTEX
  8
cliff3
 10
287035.851395446
 20
6717411.98020798
  0
SEQEND
  0
POLYLINE
 66
1
  8
cliff3
  0
VERTEX
  8
cliff3
 10
287038.716107205
 20
6717410.39333668
  0
VERTEX
  8
cliff3
 10
287036.483892795
 20
6717412.30666332
  0
SEQEND
  0
POLYLINE
 66
1
  8
cliff3
  0
VERTEX
  8
cliff3
 10
287038.838856981
 20
6717410.66243204
  0
VERTEX
  8
cliff3
 10
287036.661143019
 20
6717412.63756796
  0
SEQEND
  0
POLYLINE
 66
1
  8
cliff3
  0
VERTEX
  8
cliff3
 10
287038.924705238
 20
6717410.99601747
  0
VERTEX
  8
cliff3
 10
287036.875294762
 20
6717413.10398253
  0
SEQEND
  0
POLYLINE
 66
1
  8
cliff3
  0
VERTEX
  8
cliff3
 10
287039.374651244
 20
6717411.29699217
  0
VERTEX
  8
cliff3
 10
287037.225348756
 20
6717413.30300783
  0
SEQEND
  0
POLYLINE
 66
1
  8
cliff3
  0
VERTEX
  8
cliff3
 10
287039.276785107
 20
6717411.0059368
  0
VERTEX
  8
cliff3
 10
287037.023214893
 20
6717412.8940632
  0
SEQEND
  0
POLYLINE
 66
1
  8
cliff3
  0
VERTEX
  8
cliff3
 10
287039.039850116
 20
6717410.38677541
  0
VERTEX
  8
cliff3
 10
287036.660149883
 20
6717412.11322459
  0
SEQEND
  0
POLYLINE
 66
1
  8
cliff3
  0
VERTEX
  8
cliff3
 10
287038.910122795
 20
6717410.06543256
  0
VERTEX
  8
cliff3
 10
287036.489877205
 20
6717411.73456745
  0
SEQEND
  0
POLYLINE
 66
1
  8
cliff3
  0
VERTEX
  8
cliff3
 10
287038.838856981
 20
6717410.66243204
  0
VERTEX
  8
cliff3
 10
287036.661143019
 20
6717412.63756796
  0
SEQEND
  0
POLYLINE
 66
1
  8
cliff3
  0
VERTEX
  8
cliff3
 10
287036.682
 20
6717421.324
  0
VERTEX
  8
cliff3
 10
287034.918
 20
6717423.676
  0
SEQEND
  0
POLYLINE
 66
1
  8
cliff3
  0
VERTEX
  8
cliff3
 10
287046.126
 20
6717407.418
  0
VERTEX
  8
cliff3
 10
287043.774
 20
6717409.182
  0
SEQEND
  0
POLYLINE
 66
1
  8
cliff3
  0
VERTEX
  8
cliff3
 10
287048.773292812
 20
6717411.93459201
  0
VERTEX
  8
cliff3
 10
287046.226707188
 20
6717410.46540799
  0
SEQEND
  0
POLYLINE
 66
1
  8
cliff3
  0
VERTEX
  8
cliff3
 10
287049.004208698
 20
6717411.77818852
  0
VERTEX
  8
cliff3
 10
287046.395791302
 20
6717410.42181148
  0
SEQEND
  0
POLYLINE
 66
1
  8
cliff3
  0
VERTEX
  8
cliff3
 10
287049.155351782
 20
6717411.47598574
  0
VERTEX
  8
cliff3
 10
287046.544648218
 20
6717410.12401426
  0
SEQEND
  0
POLYLINE
 66
1
  8
cliff3
  0
VERTEX
  8
cliff3
 10
287048.768736029
 20
6717411.57193825
  0
VERTEX
  8
cliff3
 10
287046.331263971
 20
6717409.92806175
  0
SEQEND
  0
POLYLINE
 66
1
  8
cliff3
  0
VERTEX
  8
cliff3
 10
287049.507900907
 20
6717411.21303208
  0
VERTEX
  8
cliff3
 10
287046.792099093
 20
6717410.08696792
  0
SEQEND
  0
POLYLINE
 66
1
  8
cliff3
  0
VERTEX
  8
cliff3
 10
287049.695305594
 20
6717411.34504203
  0
VERTEX
  8
cliff3
 10
287047.104694406
 20
6717409.95495797
  0
SEQEND
  0
POLYLINE
 66
1
  8
cliff3
  0
VERTEX
  8
cliff3
 10
287049.652627314
 20
6717410.92558609
  0
VERTEX
  8
cliff3
 10
287046.947372686
 20
6717409.77441391
  0
SEQEND
  0
POLYLINE
 66
1
  8
cliff3
  0
VERTEX
  8
cliff3
 10
287049.7112
 20
6717411.4116
  0
VERTEX
  8
cliff3
 10
287046.8888
 20
6717410.5884
  0
SEQEND
  0
POLYLINE
 66
1
  8
cliff3
  0
VERTEX
  8
cliff3
 10
287049.916815721
 20
6717411.54103122
  0
VERTEX
  8
cliff3
 10
287047.183184279
 20
6717410.45896878
  0
SEQEND
  0
POLYLINE
 66
1
  8
cliff3
  0
VERTEX
  8
cliff3
 10
287049.852158399
 20
6717411.14142024
  0
VERTEX
  8
cliff3
 10
287047.047841601
 20
6717410.25857976
  0
SEQEND
  0
POLYLINE
 66
1
  8
cliff3
  0
VERTEX
  8
cliff3
 10
287050.052906396
 20
6717411.42352406
  0
VERTEX
  8
cliff3
 10
287047.147093604
 20
6717410.97647594
  0
SEQEND
  0
POLYLINE
 66
1
  8
cliff3
  0
VERTEX
  8
cliff3
 10
287050.276109475
 20
6717411.55652737
  0
VERTEX
  8
cliff3
 10
287047.423890525
 20
6717410.84347263
  0
SEQEND
  0
POLYLINE
 66
1
  8
cliff3
  0
VERTEX
  8
cliff3
 10
287050.194255191
 20
6717411.17391047
  0
VERTEX
  8
cliff3
 10
287047.305744809
 20
6717410.62608953
  0
SEQEND
  0
POLYLINE
 66
1
  8
cliff3
  0
VERTEX
  8
cliff3
 10
287049.87795654
 20
6717411.19905604
  0
VERTEX
  8
cliff3
 10
287047.02204346
 20
6717410.50094396
  0
SEQEND
  0
POLYLINE
 66
1
  8
cliff3
  0
VERTEX
  8
cliff3
 10
287050.085055595
 20
6717411.34246421
  0
VERTEX
  8
cliff3
 10
287047.314944405
 20
6717410.35753579
  0
SEQEND
  0
POLYLINE
 66
1
  8
cliff3
  0
VERTEX
  8
cliff3
 10
287050.017559437
 20
6717410.93913396
  0
VERTEX
  8
cliff3
 10
287047.182440563
 20
6717410.16086604
  0
SEQEND
  0
POLYLINE
 66
1
  8
cliff3
  0
VERTEX
  8
cliff3
 10
287049.740861058
 20
6717410.97582089
  0
VERTEX
  8
cliff3
 10
287046.959138942
 20
6717410.02417911
  0
SEQEND
  0
POLYLINE
 66
1
  8
cliff3
  0
VERTEX
  8
cliff3
 10
287049.928494623
 20
6717411.12928693
  0
VERTEX
  8
cliff3
 10
287047.271505377
 20
6717409.87071307
  0
SEQEND
  0
POLYLINE
 66
1
  8
cliff3
  0
VERTEX
  8
cliff3
 10
287049.881496333
 20
6717410.7023623
  0
VERTEX
  8
cliff3
 10
287047.118503667
 20
6717409.6976377
  0
SEQEND
  0
POLYLINE
 66
1
  8
cliff3
  0
VERTEX
  8
cliff3
 10
287050.159528953
 20
6717411.27514347
  0
VERTEX
  8
cliff3
 10
287047.240471047
 20
6717410.92485652
  0
SEQEND
  0
POLYLINE
 66
1
  8
cliff3
  0
VERTEX
  8
cliff3
 10
287050.385667366
 20
6717411.41584682
  0
VERTEX
  8
cliff3
 10
287047.514332634
 20
6717410.78415318
  0
SEQEND
  0
POLYLINE
 66
1
  8
cliff3
  0
VERTEX
  8
cliff3
 10
287050.301375646
 20
6717411.0332568
  0
VERTEX
  8
cliff3
 10
287047.398624354
 20
6717410.5667432
  0
SEQEND
  0
POLYLINE
 66
1
  8
cliff3
  0
VERTEX
  8
cliff3
 10
287049.123113933
 20
6717411.06540929
  0
VERTEX
  8
cliff3
 10
287046.676886067
 20
6717409.43459071
  0
SEQEND
  0
POLYLINE
 66
1
  8
cliff3
  0
VERTEX
  8
cliff3
 10
287049.28771723
 20
6717411.18085955
  0
VERTEX
  8
cliff3
 10
287047.01228277
 20
6717409.31914045
  0
SEQEND
  0
POLYLINE
 66
1
  8
cliff3
  0
VERTEX
  8
cliff3
 10
287049.287562334
 20
6717410.74330919
  0
VERTEX
  8
cliff3
 10
287046.812437666
 20
6717409.15669081
  0
SEQEND
  0
POLYLINE
 66
1
  8
cliff3
  0
VERTEX
  8
cliff3
 10
287049.440524613
 20
6717411.20323608
  0
VERTEX
  8
cliff3
 10
287046.759475387
 20
6717409.99676392
  0
SEQEND
  0
POLYLINE
 66
1
  8
cliff3
  0
VERTEX
  8
cliff3
 10
287049.624352266
 20
6717411.33275255
  0
VERTEX
  8
cliff3
 10
287047.075647734
 20
6717409.86724745
  0
SEQEND
  0
POLYLINE
 66
1
  8
cliff3
  0
VERTEX
  8
cliff3
 10
287049.587241366
 20
6717410.91047975
  0
VERTEX
  8
cliff3
 10
287046.912758634
 20
6717409.68952025
  0
SEQEND
  0
POLYLINE
 66
1
  8
cliff3
  0
VERTEX
  8
cliff3
 10
287049.708826955
 20
6717411.36965058
  0
VERTEX
  8
cliff3
 10
287046.891173045
 20
6717410.53034942
  0
SEQEND
  0
POLYLINE
 66
1
  8
cliff3
  0
VERTEX
  8
cliff3
 10
287049.912851797
 20
6717411.50094009
  0
VERTEX
  8
cliff3
 10
287047.187148203
 20
6717410.39905991
  0
SEQEND
  0
POLYLINE
 66
1
  8
cliff3
  0
VERTEX
  8
cliff3
 10
287049.849756515
 20
6717411.09897851
  0
VERTEX
  8
cliff3
 10
287047.050243485
 20
6717410.2010215
  0
SEQEND
  0
POLYLINE
 66
1
  8
cliff3
  0
VERTEX
  8
cliff3
 10
287049.249770483
 20
6717411.73225393
  0
VERTEX
  8
cliff3
 10
287046.550229517
 20
6717410.56774607
  0
SEQEND
  0
POLYLINE
 66
1
  8
cliff3
  0
VERTEX
  8
cliff3
 10
287048.965561997
 20
6717411.54783209
  0
VERTEX
  8
cliff3
 10
287046.434438004
 20
6717410.05216791
  0
SEQEND
  0
POLYLINE
 66
1
  8
cliff3
  0
VERTEX
  8
cliff3
 10
287049.121595848
 20
6717411.23752559
  0
VERTEX
  8
cliff3
 10
287046.578404152
 20
6717409.76247441
  0
SEQEND
  0
POLYLINE
 66
1
  8
cliff3
  0
VERTEX
  8
cliff3
 10
287048.641830951
 20
6717411.37580888
  0
VERTEX
  8
cliff3
 10
287046.358169049
 20
6717409.52419112
  0
SEQEND
  0
POLYLINE
 66
1
  8
cliff3
  0
VERTEX
  8
cliff3
 10
287048.815047724
 20
6717411.79870171
  0
VERTEX
  8
cliff3
 10
287046.284952276
 20
6717410.30129829
  0
SEQEND
  0
POLYLINE
 66
1
  8
cliff3
  0
VERTEX
  8
cliff3
 10
287048.970592056
 20
6717411.48925356
  0
VERTEX
  8
cliff3
 10
287046.429407944
 20
6717410.01074644
  0
SEQEND
  0
POLYLINE
 66
1
  8
cliff3
  0
VERTEX
  8
cliff3
 10
287050.665318459
 20
6717410.98277452
  0
VERTEX
  8
cliff3
 10
287047.734681541
 20
6717411.21722548
  0
SEQEND
  0
POLYLINE
 66
1
  8
cliff3
  0
VERTEX
  8
cliff3
 10
287050.919706088
 20
6717411.12939412
  0
VERTEX
  8
cliff3
 10
287047.980293912
 20
6717411.07060588
  0
SEQEND
  0
POLYLINE
 66
1
  8
cliff3
  0
VERTEX
  8
cliff3
 10
287050.819765681
 20
6717410.77375418
  0
VERTEX
  8
cliff3
 10
287047.880234319
 20
6717410.82624582
  0
SEQEND
  0
POLYLINE
 66
1
  8
cliff3
  0
VERTEX
  8
cliff3
 10
287056.857105014
 20
6717410.75571933
  0
VERTEX
  8
cliff3
 10
287053.942894986
 20
6717411.14428067
  0
SEQEND
  0
POLYLINE
 66
1
  8
cliff3
  0
VERTEX
  8
cliff3
 10
287061.194564448
 20
6717415.86485482
  0
VERTEX
  8
cliff3
 10
287058.405435552
 20
6717414.93514518
  0
SEQEND
  0
POLYLINE
 66
1
  8
cliff3
  0
VERTEX
  8
cliff3
 10
287060.95931866
 20
6717415.42688711
  0
VERTEX
  8
cliff3
 10
287058.04068134
 20
6717415.07311289
  0
SEQEND
  0
POLYLINE
 66
1
  8
cliff3
  0
VERTEX
  8
cliff3
 10
287060.667463329
 20
6717415.11367863
  0
VERTEX
  8
cliff3
 10
287057.732536671
 20
6717415.28632137
  0
SEQEND
  0
POLYLINE
 66
1
  8
cliff3
  0
VERTEX
  8
cliff3
 10
287060.99862637
 20
6717415.69976317
  0
VERTEX
  8
cliff3
 10
287058.10137363
 20
6717415.20023683
  0
SEQEND
  0
POLYLINE
 66
1
  8
cliff3
  0
VERTEX
  8
cliff3
 10
287060.866264289
 20
6717415.60473316
  0
VERTEX
  8
cliff3
 10
287057.933735711
 20
6717415.39526684
  0
SEQEND
  0
POLYLINE
 66
1
  8
cliff3
  0
VERTEX
  8
cliff3
 10
287061.065983599
 20
6717415.05859138
  0
VERTEX
  8
cliff3
 10
287058.134016401
 20
6717414.84140862
  0
SEQEND
  0
POLYLINE
 66
1
  8
cliff3
  0
VERTEX
  8
cliff3
 10
287060.755225756
 20
6717414.69211061
  0
VERTEX
  8
cliff3
 10
287057.844774244
 20
6717415.10788939
  0
SEQEND
  0
POLYLINE
 66
1
  8
cliff3
  0
VERTEX
  8
cliff3
 10
287061.97
 20
6717414.05
  0
VERTEX
  8
cliff3
 10
287059.03
 20
6717414.05
  0
SEQEND
  0
POLYLINE
 66
1
  8
cliff3
  0
VERTEX
  8
cliff3
 10
287062.510813988
 20
6717414.16292117
  0
VERTEX
  8
cliff3
 10
287059.689186012
 20
6717413.33707883
  0
SEQEND
  0
POLYLINE
 66
1
  8
cliff3
  0
VERTEX
  8
cliff3
 10
287061.491453593
 20
6717415.43829072
  0
VERTEX
  8
cliff3
 10
287058.608546407
 20
6717414.86170928
  0
SEQEND
  0
POLYLINE
 66
1
  8
cliff3
  0
VERTEX
  8
cliff3
 10
287061.219063396
 20
6717414.94753345
  0
VERTEX
  8
cliff3
 10
287058.280936604
 20
6717415.05246655
  0
SEQEND
  0
POLYLINE
 66
1
  8
cliff3
  0
VERTEX
  8
cliff3
 10
287060.878960847
 20
6717414.60507842
  0
VERTEX
  8
cliff3
 10
287058.021039153
 20
6717415.29492158
  0
SEQEND
  0
POLYLINE
 66
1
  8
cliff3
  0
VERTEX
  8
cliff3
 10
287060.019235768
 20
6717416.6026053
  0
VERTEX
  8
cliff3
 10
287057.080764232
 20
6717416.6973947
  0
SEQEND
  0
POLYLINE
 66
1
  8
cliff3
  0
VERTEX
  8
cliff3
 10
287060.356923077
 20
6717415.73461538
  0
VERTEX
  8
cliff3
 10
287057.643076923
 20
6717416.86538462
  0
SEQEND
  0
POLYLINE
 66
1
  8
cliff3
  0
VERTEX
  8
cliff3
 10
287060.689101217
 20
6717416.00018725
  0
VERTEX
  8
cliff3
 10
287057.810898783
 20
6717416.59981275
  0
SEQEND
  0
POLYLINE
 66
1
  8
cliff3
  0
VERTEX
  8
cliff3
 10
287060.583898273
 20
6717415.62621652
  0
VERTEX
  8
cliff3
 10
287057.716101727
 20
6717416.27378348
  0
SEQEND
  0
POLYLINE
 66
1
  8
cliff3
  0
VERTEX
  8
cliff3
 10
287061.114629574
 20
6717415.87553968
  0
VERTEX
  8
cliff3
 10
287058.185370426
 20
6717415.62446032
  0
SEQEND
  0
POLYLINE
 66
1
  8
cliff3
  0
VERTEX
  8
cliff3
 10
287061.389698283
 20
6717416.5292063
  0
VERTEX
  8
cliff3
 10
287058.610301717
 20
6717415.5707937
  0
SEQEND
  0
POLYLINE
 66
1
  8
cliff3
  0
VERTEX
  8
cliff3
 10
287061.244822115
 20
6717416.17090415
  0
VERTEX
  8
cliff3
 10
287058.355177885
 20
6717415.62909585
  0
SEQEND
  0
POLYLINE
 66
1
  8
cliff3
  0
VERTEX
  8
cliff3
 10
287060.97
 20
6717415.8
  0
VERTEX
  8
cliff3
 10
287058.03
 20
6717415.8
  0
SEQEND
  0
POLYLINE
 66
1
  8
cliff3
  0
VERTEX
  8
cliff3
 10
287060.538138959
 20
6717415.55759107
  0
VERTEX
  8
cliff3
 10
287058.061861041
 20
6717417.14240893
  0
SEQEND
  0
POLYLINE
 66
1
  8
cliff3
  0
VERTEX
  8
cliff3
 10
287061.414922265
 20
6717415.67792314
  0
VERTEX
  8
cliff3
 10
287058.485077735
 20
6717415.92207685
  0
SEQEND
  0
POLYLINE
 66
1
  8
cliff3
  0
VERTEX
  8
cliff3
 10
287061.757105014
 20
6717416.29428067
  0
VERTEX
  8
cliff3
 10
287058.842894986
 20
6717415.90571933
  0
SEQEND
  0
POLYLINE
 66
1
  8
cliff3
  0
VERTEX
  8
cliff3
 10
287060.672018041
 20
6717415.17230075
  0
VERTEX
  8
cliff3
 10
287057.927981959
 20
6717416.22769925
  0
SEQEND
  0
POLYLINE
 66
1
  8
cliff3
  0
VERTEX
  8
cliff3
 10
287061.27
 20
6717415.5
  0
VERTEX
  8
cliff3
 10
287058.33
 20
6717415.5
  0
SEQEND
  0
POLYLINE
 66
1
  8
cliff3
  0
VERTEX
  8
cliff3
 10
287061.41100909
 20
6717415.81233434
  0
VERTEX
  8
cliff3
 10
287058.48899091
 20
6717415.48766566
  0
SEQEND
  0
POLYLINE
 66
1
  8
cliff3
  0
VERTEX
  8
cliff3
 10
287061.112196937
 20
6717415.39873825
  0
VERTEX
  8
cliff3
 10
287058.187803063
 20
6717415.70126175
  0
SEQEND
  0
POLYLINE
 66
1
  8
cliff3
  0
VERTEX
  8
cliff3
 10
287060.195424547
 20
6717416.18232879
  0
VERTEX
  8
cliff3
 10
287057.304575453
 20
6717416.71767121
  0
SEQEND
  0
POLYLINE
 66
1
  8
cliff3
  0
VERTEX
  8
cliff3
 10
287060.973983607
 20
6717299.94897505
  0
VERTEX
  8
cliff3
 10
287059.026016393
 20
6717302.15102495
  0
SEQEND
  0
POLYLINE
 66
1
  8
cliff3
  0
VERTEX
  8
cliff3
 10
287060.53279737
 20
6717299.88865837
  0
VERTEX
  8
cliff3
 10
287058.86720263
 20
6717302.31134163
  0
SEQEND
  0
POLYLINE
 66
1
  8
cliff3
  0
VERTEX
  8
cliff3
 10
287062.339129528
 20
6717301.01914747
  0
VERTEX
  8
cliff3
 10
287059.560870472
 20
6717301.98085253
  0
SEQEND
  0
POLYLINE
 66
1
  8
cliff3
  0
VERTEX
  8
cliff3
 10
287063.361923016
 20
6717413.44611337
  0
VERTEX
  8
cliff3
 10
287060.438076984
 20
6717413.75388663
  0
SEQEND
  0
POLYLINE
 66
1
  8
cliff3
  0
VERTEX
  8
cliff3
 10
287063.447631831
 20
6717413.14453556
  0
VERTEX
  8
cliff3
 10
287060.552368169
 20
6717413.65546444
  0
SEQEND
  0
POLYLINE
 66
1
  8
cliff3
  0
VERTEX
  8
cliff3
 10
287063.267968209
 20
6717413.52273851
  0
VERTEX
  8
cliff3
 10
287060.332031791
 20
6717413.67726148
  0
SEQEND
  0
POLYLINE
 66
1
  8
cliff3
  0
VERTEX
  8
cliff3
 10
287066.776109475
 20
6717418.24347263
  0
VERTEX
  8
cliff3
 10
287063.923890525
 20
6717418.95652737
  0
SEQEND
  0
POLYLINE
 66
1
  8
cliff3
  0
VERTEX
  8
cliff3
 10
287069.486215727
 20
6717295.71668622
  0
VERTEX
  8
cliff3
 10
287067.613784273
 20
6717297.98331377
  0
SEQEND
  0
POLYLINE
 66
1
  8
cliff3
  0
VERTEX
  8
cliff3
 10
287071.621213258
 20
6717414.92978694
  0
VERTEX
  8
cliff3
 10
287068.878786742
 20
6717413.87021306
  0
SEQEND
  0
POLYLINE
 66
1
  8
cliff3
  0
VERTEX
  8
cliff3
 10
287071.824352266
 20
6717415.33275255
  0
VERTEX
  8
cliff3
 10
287069.275647735
 20
6717413.86724745
  0
SEQEND
  0
POLYLINE
 66
1
  8
cliff3
  0
VERTEX
  8
cliff3
 10
287071.857100798
 20
6717414.77540257
  0
VERTEX
  8
cliff3
 10
287069.042899202
 20
6717413.92459743
  0
SEQEND
  0
POLYLINE
 66
1
  8
cliff3
  0
VERTEX
  8
cliff3
 10
287072.071515107
 20
6717415.19381505
  0
VERTEX
  8
cliff3
 10
287069.428484893
 20
6717413.90618495
  0
SEQEND
  0
POLYLINE
 66
1
  8
cliff3
  0
VERTEX
  8
cliff3
 10
287071.706923077
 20
6717414.56538462
  0
VERTEX
  8
cliff3
 10
287068.993076923
 20
6717413.43461538
  0
SEQEND
  0
POLYLINE
 66
1
  8
cliff3
  0
VERTEX
  8
cliff3
 10
287071.878990429
 20
6717415.00652497
  0
VERTEX
  8
cliff3
 10
287069.421009571
 20
6717413.39347503
  0
SEQEND
  0
POLYLINE
 66
1
  8
cliff3
  0
VERTEX
  8
cliff3
 10
287071.612611815
 20
6717414.85153335
  0
VERTEX
  8
cliff3
 10
287068.887388185
 20
6717413.74846665
  0
SEQEND
  0
POLYLINE
 66
1
  8
cliff3
  0
VERTEX
  8
cliff3
 10
287071.807585116
 20
6717415.26116994
  0
VERTEX
  8
cliff3
 10
287069.292414884
 20
6717413.73883006
  0
SEQEND
  0
POLYLINE
 66
1
  8
cliff3
  0
VERTEX
  8
cliff3
 10
287072.519562955
 20
6717414.285843
  0
VERTEX
  8
cliff3
 10
287069.580437045
 20
6717414.214157
  0
SEQEND
  0
POLYLINE
 66
1
  8
cliff3
  0
VERTEX
  8
cliff3
 10
287072.794378261
 20
6717414.72326075
  0
VERTEX
  8
cliff3
 10
287069.905621739
 20
6717414.17673925
  0
SEQEND
  0
POLYLINE
 66
1
  8
cliff3
  0
VERTEX
  8
cliff3
 10
287073.889446968
 20
6717415.48944697
  0
VERTEX
  8
cliff3
 10
287071.810553032
 20
6717413.41055303
  0
SEQEND
  0
POLYLINE
 66
1
  8
cliff3
  0
VERTEX
  8
cliff3
 10
287072.857105014
 20
6717414.25571933
  0
VERTEX
  8
cliff3
 10
287069.942894986
 20
6717414.64428067
  0
SEQEND
  0
POLYLINE
 66
1
  8
cliff3
  0
VERTEX
  8
cliff3
 10
287073.17
 20
6717414.65
  0
VERTEX
  8
cliff3
 10
287070.23
 20
6717414.65
  0
SEQEND
  0
POLYLINE
 66
1
  8
cliff3
  0
VERTEX
  8
cliff3
 10
287074.386334579
 20
6717415.51804969
  0
VERTEX
  8
cliff3
 10
287072.013665421
 20
6717413.78195031
  0
SEQEND
  0
POLYLINE
 66
1
  8
cliff3
  0
VERTEX
  8
cliff3
 10
287073.802492702
 20
6717415.16034776
  0
VERTEX
  8
cliff3
 10
287071.997507298
 20
6717412.83965224
  0
SEQEND
  0
POLYLINE
 66
1
  8
cliff3
  0
VERTEX
  8
cliff3
 10
287073.536523318
 20
6717414.97217664
  0
VERTEX
  8
cliff3
 10
287072.063476682
 20
6717412.42782336
  0
SEQEND
  0
POLYLINE
 66
1
  8
cliff3
  0
VERTEX
  8
cliff3
 10
287074.685907594
 20
6717414.93306695
  0
VERTEX
  8
cliff3
 10
287072.414092406
 20
6717413.06693305
  0
SEQEND
  0
POLYLINE
 66
1
  8
cliff3
  0
VERTEX
  8
cliff3
 10
287074.976317419
 20
6717415.07932424
  0
VERTEX
  8
cliff3
 10
287072.423682581
 20
6717413.62067576
  0
SEQEND
  0
POLYLINE
 66
1
  8
cliff3
  0
VERTEX
  8
cliff3
 10
287073.713440203
 20
6717414.29615994
  0
VERTEX
  8
cliff3
 10
287070.886559797
 20
6717415.10384006
  0
SEQEND
  0
POLYLINE
 66
1
  8
cliff3
  0
VERTEX
  8
cliff3
 10
287075.151143194
 20
6717415.27906137
  0
VERTEX
  8
cliff3
 10
287072.448856806
 20
6717414.12093863
  0
SEQEND
  0
POLYLINE
 66
1
  8
cliff3
  0
VERTEX
  8
cliff3
 10
287074.844555727
 20
6717415.13229217
  0
VERTEX
  8
cliff3
 10
287072.355444273
 20
6717413.56770783
  0
SEQEND
  0
POLYLINE
 66
1
  8
cliff3
  0
VERTEX
  8
cliff3
 10
287074.477206433
 20
6717415.00026312
  0
VERTEX
  8
cliff3
 10
287072.322793567
 20
6717412.99973688
  0
SEQEND
  0
POLYLINE
 66
1
  8
cliff3
  0
VERTEX
  8
cliff3
 10
287074.087133554
 20
6717415.13925082
  0
VERTEX
  8
cliff3
 10
287072.112866446
 20
6717412.96074918
  0
SEQEND
  0
POLYLINE
 66
1
  8
cliff3
  0
VERTEX
  8
cliff3
 10
287072.619620498
 20
6717414.36659953
  0
VERTEX
  8
cliff3
 10
287069.680379502
 20
6717414.43340047
  0
SEQEND
  0
POLYLINE
 66
1
  8
cliff3
  0
VERTEX
  8
cliff3
 10
287072.908648479
 20
6717414.78233106
  0
VERTEX
  8
cliff3
 10
287069.991351521
 20
6717414.41766894
  0
SEQEND
  0
POLYLINE
 66
1
  8
cliff3
  0
VERTEX
  8
cliff3
 10
287074.056287741
 20
6717415.56800177
  0
VERTEX
  8
cliff3
 10
287071.843712259
 20
6717413.63199823
  0
SEQEND
  0
POLYLINE
 66
1
  8
cliff3
  0
VERTEX
  8
cliff3
 10
287072.415440278
 20
6717414.21569265
  0
VERTEX
  8
cliff3
 10
287069.484559721
 20
6717413.98430735
  0
SEQEND
  0
POLYLINE
 66
1
  8
cliff3
  0
VERTEX
  8
cliff3
 10
287072.671056685
 20
6717414.67616206
  0
VERTEX
  8
cliff3
 10
287069.828943315
 20
6717413.92383794
  0
SEQEND
  0
POLYLINE
 66
1
  8
cliff3
  0
VERTEX
  8
cliff3
 10
287073.715988745
 20
6717415.40804591
  0
VERTEX
  8
cliff3
 10
287071.784011255
 20
6717413.19195409
  0
SEQEND
  0
POLYLINE
 66
1
  8
cliff3
  0
VERTEX
  8
cliff3
 10
287072.141453593
 20
6717414.48829072
  0
VERTEX
  8
cliff3
 10
287069.258546407
 20
6717413.91170928
  0
SEQEND
  0
POLYLINE
 66
1
  8
cliff3
  0
VERTEX
  8
cliff3
 10
287072.370046867
 20
6717414.932796
  0
VERTEX
  8
cliff3
 10
287069.629953133
 20
6717413.867204
  0
SEQEND
  0
POLYLINE
 66
1
  8
cliff3
  0
VERTEX
  8
cliff3
 10
287073.430859552
 20
6717415.53771723
  0
VERTEX
  8
cliff3
 10
287071.569140448
 20
6717413.26228277
  0
SEQEND
  0
POLYLINE
 66
1
  8
cliff3
  0
VERTEX
  8
cliff3
 10
287072.364705071
 20
6717414.67465575
  0
VERTEX
  8
cliff3
 10
287069.435294929
 20
6717414.42534425
  0
SEQEND
  0
POLYLINE
 66
1
  8
cliff3
  0
VERTEX
  8
cliff3
 10
287072.6317918
 20
6717415.08297484
  0
VERTEX
  8
cliff3
 10
287069.7682082
 20
6717414.41702516
  0
SEQEND
  0
POLYLINE
 66
1
  8
cliff3
  0
VERTEX
  8
cliff3
 10
287073.776314505
 20
6717415.7512228
  0
VERTEX
  8
cliff3
 10
287071.623685495
 20
6717413.7487772
  0
SEQEND
  0
POLYLINE
 66
1
  8
cliff3
  0
VERTEX
  8
cliff3
 10
287075.651537729
 20
6717296.41775396
  0
VERTEX
  8
cliff3
 10
287072.748462271
 20
6717296.88224604
  0
SEQEND
  0
POLYLINE
 66
1
  8
cliff3
  0
VERTEX
  8
cliff3
 10
287075.486043026
 20
6717295.98586559
  0
VERTEX
  8
cliff3
 10
287072.613956974
 20
6717296.61413441
  0
SEQEND
  0
POLYLINE
 66
1
  8
cliff3
  0
VERTEX
  8
cliff3
 10
287075.918204695
 20
6717296.26249101
  0
VERTEX
  8
cliff3
 10
287073.181795305
 20
6717297.33750899
  0
SEQEND
  0
POLYLINE
 66
1
  8
cliff3
  0
VERTEX
  8
cliff3
 10
287076.057632351
 20
6717295.64402686
  0
VERTEX
  8
cliff3
 10
287073.742367649
 20
6717297.45597315
  0
SEQEND
  0
POLYLINE
 66
1
  8
cliff3
  0
VERTEX
  8
cliff3
 10
287075.954270923
 20
6717295.35701035
  0
VERTEX
  8
cliff3
 10
287073.545729077
 20
6717297.04298965
  0
SEQEND
  0
POLYLINE
 66
1
  8
cliff3
  0
VERTEX
  8
cliff3
 10
287076.618204695
 20
6717295.76249101
  0
VERTEX
  8
cliff3
 10
287073.881795305
 20
6717296.83750899
  0
SEQEND
  0
POLYLINE
 66
1
  8
cliff3
  0
VERTEX
  8
cliff3
 10
287077.052906396
 20
6717296.17647594
  0
VERTEX
  8
cliff3
 10
287074.147093604
 20
6717296.62352406
  0
SEQEND
  0
POLYLINE
 66
1
  8
cliff3
  0
VERTEX
  8
cliff3
 10
287076.287099196
 20
6717295.53987631
  0
VERTEX
  8
cliff3
 10
287073.712900804
 20
6717296.96012369
  0
SEQEND
  0
POLYLINE
 66
1
  8
cliff3
  0
VERTEX
  8
cliff3
 10
287075.379364382
 20
6717415.00818688
  0
VERTEX
  8
cliff3
 10
287072.620635618
 20
6717413.99181312
  0
SEQEND
  0
POLYLINE
 66
1
  8
cliff3
  0
VERTEX
  8
cliff3
 10
287076.577398448
 20
6717416.35461923
  0
VERTEX
  8
cliff3
 10
287075.222601552
 20
6717413.74538077
  0
SEQEND
  0
POLYLINE
 66
1
  8
cliff3
  0
VERTEX
  8
cliff3
 10
287075.886532359
 20
6717415.09491366
  0
VERTEX
  8
cliff3
 10
287073.413467641
 20
6717413.50508634
  0
SEQEND
  0
POLYLINE
 66
1
  8
cliff3
  0
VERTEX
  8
cliff3
 10
287076.164854816
 20
6717416.99456445
  0
VERTEX
  8
cliff3
 10
287075.235145184
 20
6717414.20543555
  0
SEQEND
  0
POLYLINE
 66
1
  8
cliff3
  0
VERTEX
  8
cliff3
 10
287075.138914241
 20
6717414.85682394
  0
VERTEX
  8
cliff3
 10
287072.561085759
 20
6717413.44317606
  0
SEQEND
  0
POLYLINE
 66
1
  8
cliff3
  0
VERTEX
  8
cliff3
 10
287075.616107205
 20
6717414.90666332
  0
VERTEX
  8
cliff3
 10
287073.383892795
 20
6717412.99333668
  0
SEQEND
  0
POLYLINE
 66
1
  8
cliff3
  0
VERTEX
  8
cliff3
 10
287076.664854816
 20
6717418.49456445
  0
VERTEX
  8
cliff3
 10
287075.735145184
 20
6717415.70543555
  0
SEQEND
  0
POLYLINE
 66
1
  8
cliff3
  0
VERTEX
  8
cliff3
 10
287076.639464798
 20
6717417.60673065
  0
VERTEX
  8
cliff3
 10
287074.960535202
 20
6717415.19326935
  0
SEQEND
  0
POLYLINE
 66
1
  8
cliff3
  0
VERTEX
  8
cliff3
 10
287076.936942819
 20
6717418.77484106
  0
VERTEX
  8
cliff3
 10
287075.663057181
 20
6717416.12515894
  0
SEQEND
  0
POLYLINE
 66
1
  8
cliff3
  0
VERTEX
  8
cliff3
 10
287076.875062046
 20
6717417.85007
  0
VERTEX
  8
cliff3
 10
287074.924937954
 20
6717415.64993
  0
SEQEND
  0
POLYLINE
 66
1
  8
cliff3
  0
VERTEX
  8
cliff3
 10
287077.253779684
 20
6717419.03078764
  0
VERTEX
  8
cliff3
 10
287075.646220316
 20
6717416.56921236
  0
SEQEND
  0
POLYLINE
 66
1
  8
cliff3
  0
VERTEX
  8
cliff3
 10
287077.147374509
 20
6717418.07809467
  0
VERTEX
  8
cliff3
 10
287074.952625491
 20
6717416.12190533
  0
SEQEND
  0
POLYLINE
 66
1
  8
cliff3
  0
VERTEX
  8
cliff3
 10
287077.661746308
 20
6717419.05309092
  0
VERTEX
  8
cliff3
 10
287075.838253692
 20
6717416.74690908
  0
SEQEND
  0
POLYLINE
 66
1
  8
cliff3
  0
VERTEX
  8
cliff3
 10
287077.537771069
 20
6717418.06608307
  0
VERTEX
  8
cliff3
 10
287075.162228931
 20
6717416.33391693
  0
SEQEND
  0
POLYLINE
 66
1
  8
cliff3
  0
VERTEX
  8
cliff3
 10
287077.344114836
 20
6717418.8177512
  0
VERTEX
  8
cliff3
 10
287075.855885164
 20
6717416.2822488
  0
SEQEND
  0
POLYLINE
 66
1
  8
cliff3
  0
VERTEX
  8
cliff3
 10
287077.278142536
 20
6717417.84925406
  0
VERTEX
  8
cliff3
 10
287075.121857464
 20
6717415.85074594
  0
SEQEND
  0
POLYLINE
 66
1
  8
cliff3
  0
VERTEX
  8
cliff3
 10
287077.029061369
 20
6717418.60114319
  0
VERTEX
  8
cliff3
 10
287075.870938631
 20
6717415.89885681
  0
SEQEND
  0
POLYLINE
 66
1
  8
cliff3
  0
VERTEX
  8
cliff3
 10
287077.004415698
 20
6717417.66802982
  0
VERTEX
  8
cliff3
 10
287075.095584302
 20
6717415.43197018
  0
SEQEND
  0
POLYLINE
 66
1
  8
cliff3
  0
VERTEX
  8
cliff3
 10
287076.434239581
 20
6717417.22613731
  0
VERTEX
  8
cliff3
 10
287075.165760419
 20
6717414.57386269
  0
SEQEND
  0
POLYLINE
 66
1
  8
cliff3
  0
VERTEX
  8
cliff3
 10
287077.923196187
 20
6717418.3567926
  0
VERTEX
  8
cliff3
 10
287076.576803813
 20
6717415.7432074
  0
SEQEND
  0
POLYLINE
 66
1
  8
cliff3
  0
VERTEX
  8
cliff3
 10
287077.994267168
 20
6717417.2727961
  0
VERTEX
  8
cliff3
 10
287075.705732832
 20
6717415.4272039
  0
SEQEND
  0
POLYLINE
 66
1
  8
cliff3
  0
VERTEX
  8
cliff3
 10
287077.697995998
 20
6717418.06509688
  0
VERTEX
  8
cliff3
 10
287076.902004002
 20
6717415.23490312
  0
SEQEND
  0
POLYLINE
 66
1
  8
cliff3
  0
VERTEX
  8
cliff3
 10
287077.917100884
 20
6717417.01132266
  0
VERTEX
  8
cliff3
 10
287075.882899116
 20
6717414.88867734
  0
SEQEND
  0
POLYLINE
 66
1
  8
cliff3
  0
VERTEX
  8
cliff3
 10
287077.539734806
 20
6717418.31732818
  0
VERTEX
  8
cliff3
 10
287076.460265194
 20
6717415.58267182
  0
SEQEND
  0
POLYLINE
 66
1
  8
cliff3
  0
VERTEX
  8
cliff3
 10
287077.621682482
 20
6717417.30691291
  0
VERTEX
  8
cliff3
 10
287075.578317518
 20
6717415.19308709
  0
SEQEND
  0
POLYLINE
 66
1
  8
cliff3
  0
VERTEX
  8
cliff3
 10
287076.886678667
 20
6717418.5685306
  0
VERTEX
  8
cliff3
 10
287075.813321333
 20
6717415.8314694
  0
SEQEND
  0
POLYLINE
 66
1
  8
cliff3
  0
VERTEX
  8
cliff3
 10
287076.861746309
 20
6717417.65309092
  0
VERTEX
  8
cliff3
 10
287075.038253691
 20
6717415.34690908
  0
SEQEND
  0
POLYLINE
 66
1
  8
cliff3
  0
VERTEX
  8
cliff3
 10
287076.482242957
 20
6717417.42464515
  0
VERTEX
  8
cliff3
 10
287075.017757043
 20
6717414.87535485
  0
SEQEND
  0
POLYLINE
 66
1
  8
cliff3
  0
VERTEX
  8
cliff3
 10
287076.616151459
 20
6717418.62640389
  0
VERTEX
  8
cliff3
 10
287075.583848541
 20
6717415.87359611
  0
SEQEND
  0
POLYLINE
 66
1
  8
cliff3
  0
VERTEX
  8
cliff3
 10
287076.566083071
 20
6717417.73777107
  0
VERTEX
  8
cliff3
 10
287074.833916929
 20
6717415.36222893
  0
SEQEND
  0
POLYLINE
 66
1
  8
cliff3
  0
VERTEX
  8
cliff3
 10
287076.99692674
 20
6717418.89429252
  0
VERTEX
  8
cliff3
 10
287075.60307326
 20
6717416.30570748
  0
SEQEND
  0
POLYLINE
 66
1
  8
cliff3
  0
VERTEX
  8
cliff3
 10
287076.914999348
 20
6717417.96333265
  0
VERTEX
  8
cliff3
 10
287074.885000652
 20
6717415.83666735
  0
SEQEND
  0
POLYLINE
 66
1
  8
cliff3
  0
VERTEX
  8
cliff3
 10
287075.998827826
 20
6717295.08681105
  0
VERTEX
  8
cliff3
 10
287074.201172174
 20
6717297.41318895
  0
SEQEND
  0
POLYLINE
 66
1
  8
cliff3
  0
VERTEX
  8
cliff3
 10
287076.664554194
 20
6717295.17189487
  0
VERTEX
  8
cliff3
 10
287074.235445806
 20
6717296.82810513
  0
SEQEND
  0
POLYLINE
 66
1
  8
cliff3
  0
VERTEX
  8
cliff3
 10
287077.164860736
 20
6717295.55405571
  0
VERTEX
  8
cliff3
 10
287074.435139264
 20
6717296.64594429
  0
SEQEND
  0
POLYLINE
 66
1
  8
cliff3
  0
VERTEX
  8
cliff3
 10
287076.309270118
 20
6717294.98541729
  0
VERTEX
  8
cliff3
 10
287074.090729882
 20
6717296.91458271
  0
SEQEND
  0
POLYLINE
 66
1
  8
cliff3
  0
VERTEX
  8
cliff3
 10
287076.787471784
 20
6717414.11438488
  0
VERTEX
  8
cliff3
 10
287074.012528216
 20
6717415.08561512
  0
SEQEND
  0
POLYLINE
 66
1
  8
cliff3
  0
VERTEX
  8
cliff3
 10
287078.432479652
 20
6717416.08722454
  0
VERTEX
  8
cliff3
 10
287076.167520348
 20
6717414.21277546
  0
SEQEND
  0
POLYLINE
 66
1
  8
cliff3
  0
VERTEX
  8
cliff3
 10
287077.519620498
 20
6717414.36659953
  0
VERTEX
  8
cliff3
 10
287074.580379502
 20
6717414.43340047
  0
SEQEND
  0
POLYLINE
 66
1
  8
cliff3
  0
VERTEX
  8
cliff3
 10
287078.083378155
 20
6717416.79264239
  0
VERTEX
  8
cliff3
 10
287076.116621845
 20
6717414.6073576
  0
SEQEND
  0
POLYLINE
 66
1
  8
cliff3
  0
VERTEX
  8
cliff3
 10
287078.565409288
 20
6717416.72311393
  0
VERTEX
  8
cliff3
 10
287076.934590712
 20
6717414.27688607
  0
SEQEND
  0
POLYLINE
 66
1
  8
cliff3
  0
VERTEX
  8
cliff3
 10
287079.015749167
 20
6717418.21246171
  0
VERTEX
  8
cliff3
 10
287076.884250833
 20
6717416.18753829
  0
SEQEND
  0
POLYLINE
 66
1
  8
cliff3
  0
VERTEX
  8
cliff3
 10
287078.948623442
 20
6717416.95249582
  0
VERTEX
  8
cliff3
 10
287076.151376558
 20
6717416.04750418
  0
SEQEND
  0
POLYLINE
 66
1
  8
cliff3
  0
VERTEX
  8
cliff3
 10
287079.442868687
 20
6717417.0849697
  0
VERTEX
  8
cliff3
 10
287076.957131313
 20
6717415.5150303
  0
SEQEND
  0
POLYLINE
 66
1
  8
cliff3
  0
VERTEX
  8
cliff3
 10
287079.711355769
 20
6717418.10462643
  0
VERTEX
  8
cliff3
 10
287076.988644231
 20
6717416.99537358
  0
SEQEND
  0
POLYLINE
 66
1
  8
cliff3
  0
VERTEX
  8
cliff3
 10
287079.416080574
 20
6717416.95727419
  0
VERTEX
  8
cliff3
 10
287076.483919426
 20
6717416.74272581
  0
SEQEND
  0
POLYLINE
 66
1
  8
cliff3
  0
VERTEX
  8
cliff3
 10
287079.985055595
 20
6717417.14246421
  0
VERTEX
  8
cliff3
 10
287077.214944405
 20
6717416.15753579
  0
SEQEND
  0
POLYLINE
 66
1
  8
cliff3
  0
VERTEX
  8
cliff3
 10
287079.404270923
 20
6717418.04298965
  0
VERTEX
  8
cliff3
 10
287076.995729077
 20
6717416.35701035
  0
SEQEND
  0
POLYLINE
 66
1
  8
cliff3
  0
VERTEX
  8
cliff3
 10
287079.247631831
 20
6717416.75546444
  0
VERTEX
  8
cliff3
 10
287076.352368169
 20
6717416.24453556
  0
SEQEND
  0
POLYLINE
 66
1
  8
cliff3
  0
VERTEX
  8
cliff3
 10
287079.764807971
 20
6717416.95740399
  0
VERTEX
  8
cliff3
 10
287077.135192029
 20
6717415.64259602
  0
SEQEND
  0
POLYLINE
 66
1
  8
cliff3
  0
VERTEX
  8
cliff3
 10
287078.984489662
 20
6717418.03473745
  0
VERTEX
  8
cliff3
 10
287077.115510339
 20
6717415.76526255
  0
SEQEND
  0
POLYLINE
 66
1
  8
cliff3
  0
VERTEX
  8
cliff3
 10
287079.049481985
 20
6717416.64983349
  0
VERTEX
  8
cliff3
 10
287076.250518015
 20
6717415.7501665
  0
SEQEND
  0
POLYLINE
 66
1
  8
cliff3
  0
VERTEX
  8
cliff3
 10
287079.511341629
 20
6717416.83279737
  0
VERTEX
  8
cliff3
 10
287077.088658372
 20
6717415.16720263
  0
SEQEND
  0
POLYLINE
 66
1
  8
cliff3
  0
VERTEX
  8
cliff3
 10
287080.37
 20
6717417.4
  0
VERTEX
  8
cliff3
 10
287077.43
 20
6717417.4
  0
SEQEND
  0
POLYLINE
 66
1
  8
cliff3
  0
VERTEX
  8
cliff3
 10
287079.938468184
 20
6717416.39716459
  0
VERTEX
  8
cliff3
 10
287077.061531816
 20
6717417.00283541
  0
SEQEND
  0
POLYLINE
 66
1
  8
cliff3
  0
VERTEX
  8
cliff3
 10
287080.609692763
 20
6717416.67377295
  0
VERTEX
  8
cliff3
 10
287077.690307237
 20
6717416.32622705
  0
SEQEND
  0
POLYLINE
 66
1
  8
cliff3
  0
VERTEX
  8
cliff3
 10
287080.26270467
 20
6717417.34627047
  0
VERTEX
  8
cliff3
 10
287077.33729533
 20
6717417.05372953
  0
SEQEND
  0
POLYLINE
 66
1
  8
cliff3
  0
VERTEX
  8
cliff3
 10
287079.847631831
 20
6717416.24453556
  0
VERTEX
  8
cliff3
 10
287076.952368169
 20
6717416.75546444
  0
SEQEND
  0
POLYLINE
 66
1
  8
cliff3
  0
VERTEX
  8
cliff3
 10
287080.495676187
 20
6717416.56630877
  0
VERTEX
  8
cliff3
 10
287077.604323813
 20
6717416.03369123
  0
SEQEND
  0
POLYLINE
 66
1
  8
cliff3
  0
VERTEX
  8
cliff3
 10
287079.934700295
 20
6717417.46601552
  0
VERTEX
  8
cliff3
 10
287077.265299705
 20
6717416.23398448
  0
SEQEND
  0
POLYLINE
 66
1
  8
cliff3
  0
VERTEX
  8
cliff3
 10
287079.665983599
 20
6717416.04140862
  0
VERTEX
  8
cliff3
 10
287076.734016401
 20
6717416.25859138
  0
SEQEND
  0
POLYLINE
 66
1
  8
cliff3
  0
VERTEX
  8
cliff3
 10
287080.235368786
 20
6717416.44158247
  0
VERTEX
  8
cliff3
 10
287077.464631214
 20
6717415.45841753
  0
SEQEND
  0
POLYLINE
 66
1
  8
cliff3
  0
VERTEX
  8
cliff3
 10
287079.646557507
 20
6717417.77909844
  0
VERTEX
  8
cliff3
 10
287077.153442493
 20
6717416.22090156
  0
SEQEND
  0
POLYLINE
 66
1
  8
cliff3
  0
VERTEX
  8
cliff3
 10
287079.466744182
 20
6717416.39778295
  0
VERTEX
  8
cliff3
 10
287076.533255818
 20
6717416.20221705
  0
SEQEND
  0
POLYLINE
 66
1
  8
cliff3
  0
VERTEX
  8
cliff3
 10
287079.994929168
 20
6717416.6933511
  0
VERTEX
  8
cliff3
 10
287077.305070832
 20
6717415.5066489
  0
SEQEND
  0
POLYLINE
 66
1
  8
cliff3
  0
VERTEX
  8
cliff3
 10
287080.02239739
 20
6717417.72106019
  0
VERTEX
  8
cliff3
 10
287077.17760261
 20
6717416.97893981
  0
SEQEND
  0
POLYLINE
 66
1
  8
cliff3
  0
VERTEX
  8
cliff3
 10
287079.667857142
 20
6717416.57065637
  0
VERTEX
  8
cliff3
 10
287076.732142858
 20
6717416.72934363
  0
SEQEND
  0
POLYLINE
 66
1
  8
cliff3
  0
VERTEX
  8
cliff3
 10
287080.269788971
 20
6717416.83091899
  0
VERTEX
  8
cliff3
 10
287077.430211029
 20
6717416.06908101
  0
SEQEND
  0
POLYLINE
 66
1
  8
cliff3
  0
VERTEX
  8
cliff3
 10
287080.266744182
 20
6717417.79778295
  0
VERTEX
  8
cliff3
 10
287077.333255818
 20
6717417.60221705
  0
SEQEND
  0
POLYLINE
 66
1
  8
cliff3
  0
VERTEX
  8
cliff3
 10
287079.856520347
 20
6717416.80138359
  0
VERTEX
  8
cliff3
 10
287076.943479653
 20
6717417.19861641
  0
SEQEND
  0
POLYLINE
 66
1
  8
cliff3
  0
VERTEX
  8
cliff3
 10
287080.504613482
 20
6717417.01213113
  0
VERTEX
  8
cliff3
 10
287077.595386518
 20
6717416.58786887
  0
SEQEND
  0
POLYLINE
 66
1
  8
cliff3
  0
VERTEX
  8
cliff3
 10
287079.323113933
 20
6717418.21540929
  0
VERTEX
  8
cliff3
 10
287076.876886067
 20
6717416.58459071
  0
SEQEND
  0
POLYLINE
 66
1
  8
cliff3
  0
VERTEX
  8
cliff3
 10
287079.138468184
 20
6717417.00283541
  0
VERTEX
  8
cliff3
 10
287076.261531816
 20
6717416.39716459
  0
SEQEND
  0
POLYLINE
 66
1
  8
cliff3
  0
VERTEX
  8
cliff3
 10
287079.664807971
 20
6717417.15740399
  0
VERTEX
  8
cliff3
 10
287077.035192029
 20
6717415.84259602
  0
SEQEND
  0
POLYLINE
 66
1
  8
cliff3
  0
VERTEX
  8
cliff3
 10
287078.883378155
 20
6717418.19264239
  0
VERTEX
  8
cliff3
 10
287076.916621845
 20
6717416.0073576
  0
SEQEND
  0
POLYLINE
 66
1
  8
cliff3
  0
VERTEX
  8
cliff3
 10
287078.876403891
 20
6717416.91615146
  0
VERTEX
  8
cliff3
 10
287076.123596109
 20
6717415.88384854
  0
SEQEND
  0
POLYLINE
 66
1
  8
cliff3
  0
VERTEX
  8
cliff3
 10
287079.35741385
 20
6717417.03848184
  0
VERTEX
  8
cliff3
 10
287076.942586151
 20
6717415.36151816
  0
SEQEND
  0
POLYLINE
 66
1
  8
cliff3
  0
VERTEX
  8
cliff3
 10
287078.312482424
 20
6717418.08632529
  0
VERTEX
  8
cliff3
 10
287077.087517576
 20
6717415.41367471
  0
SEQEND
  0
POLYLINE
 66
1
  8
cliff3
  0
VERTEX
  8
cliff3
 10
287078.538138959
 20
6717416.84240893
  0
VERTEX
  8
cliff3
 10
287076.061861041
 20
6717415.25759107
  0
SEQEND
  0
POLYLINE
 66
1
  8
cliff3
  0
VERTEX
  8
cliff3
 10
287078.989446968
 20
6717416.88944697
  0
VERTEX
  8
cliff3
 10
287076.910553032
 20
6717414.81055303
  0
SEQEND
  0
POLYLINE
 66
1
  8
cliff3
  0
VERTEX
  8
cliff3
 10
287078.229324239
 20
6717418.27631742
  0
VERTEX
  8
cliff3
 10
287076.770675761
 20
6717415.72368258
  0
SEQEND
  0
POLYLINE
 66
1
  8
cliff3
  0
VERTEX
  8
cliff3
 10
287078.323113933
 20
6717417.11540929
  0
VERTEX
  8
cliff3
 10
287075.876886067
 20
6717415.48459071
  0
SEQEND
  0
POLYLINE
 66
1
  8
cliff3
  0
VERTEX
  8
cliff3
 10
287078.804843617
 20
6717417.1238188
  0
VERTEX
  8
cliff3
 10
287076.695156383
 20
6717415.07618119
  0
SEQEND
  0
POLYLINE
 66
1
  8
cliff3
  0
VERTEX
  8
cliff3
 10
287079.980428023
 20
6717419.33878558
  0
VERTEX
  8
cliff3
 10
287077.119571977
 20
6717418.66121442
  0
SEQEND
  0
POLYLINE
 66
1
  8
cliff3
  0
VERTEX
  8
cliff3
 10
287080.262328715
 20
6717419.19998243
  0
VERTEX
  8
cliff3
 10
287077.337671285
 20
6717418.90001757
  0
SEQEND
  0
POLYLINE
 66
1
  8
cliff3
  0
VERTEX
  8
cliff3
 10
287080.206023642
 20
6717419.10222551
  0
VERTEX
  8
cliff3
 10
287077.293976358
 20
6717418.6977745
  0
SEQEND
  0
POLYLINE
 66
1
  8
cliff3
  0
VERTEX
  8
cliff3
 10
287079.78619579
 20
6717419.28924557
  0
VERTEX
  8
cliff3
 10
287077.01380421
 20
6717418.31075443
  0
SEQEND
  0
POLYLINE
 66
1
  8
cliff3
  0
VERTEX
  8
cliff3
 10
287080.04279117
 20
6717419.43152023
  0
VERTEX
  8
cliff3
 10
287077.15720883
 20
6717418.86847977
  0
SEQEND
  0
POLYLINE
 66
1
  8
cliff3
  0
VERTEX
  8
cliff3
 10
287080.264705071
 20
6717419.57465575
  0
VERTEX
  8
cliff3
 10
287077.335294929
 20
6717419.32534425
  0
SEQEND
  0
POLYLINE
 66
1
  8
cliff3
  0
VERTEX
  8
cliff3
 10
287079.440524613
 20
6717419.70323608
  0
VERTEX
  8
cliff3
 10
287076.759475387
 20
6717418.49676392
  0
SEQEND
  0
POLYLINE
 66
1
  8
cliff3
  0
VERTEX
  8
cliff3
 10
287079.123113933
 20
6717419.56540929
  0
VERTEX
  8
cliff3
 10
287076.676886067
 20
6717417.93459071
  0
SEQEND
  0
POLYLINE
 66
1
  8
cliff3
  0
VERTEX
  8
cliff3
 10
287078.954619233
 20
6717420.37739845
  0
VERTEX
  8
cliff3
 10
287076.345380767
 20
6717419.02260155
  0
SEQEND
  0
POLYLINE
 66
1
  8
cliff3
  0
VERTEX
  8
cliff3
 10
287081.718204695
 20
6717293.56249101
  0
VERTEX
  8
cliff3
 10
287078.981795305
 20
6717294.63750899
  0
SEQEND
  0
POLYLINE
 66
1
  8
cliff3
  0
VERTEX
  8
cliff3
 10
287081.696557507
 20
6717294.22090156
  0
VERTEX
  8
cliff3
 10
287079.203442493
 20
6717295.77909844
  0
SEQEND
  0
POLYLINE
 66
1
  8
cliff3
  0
VERTEX
  8
cliff3
 10
287081.513188952
 20
6717294.20117217
  0
VERTEX
  8
cliff3
 10
287079.186811048
 20
6717295.99882783
  0
SEQEND
  0
POLYLINE
 66
1
  8
cliff3
  0
VERTEX
  8
cliff3
 10
287080.51316452
 20
6717417.60840343
  0
VERTEX
  8
cliff3
 10
287077.58683548
 20
6717417.89159657
  0
SEQEND
  0
POLYLINE
 66
1
  8
cliff3
  0
VERTEX
  8
cliff3
 10
287080.07795654
 20
6717416.70094396
  0
VERTEX
  8
cliff3
 10
287077.22204346
 20
6717417.39905604
  0
SEQEND
  0
POLYLINE
 66
1
  8
cliff3
  0
VERTEX
  8
cliff3
 10
287080.768777038
 20
6717416.90995008
  0
VERTEX
  8
cliff3
 10
287077.831222962
 20
6717416.79004992
  0
SEQEND
  0
POLYLINE
 66
1
  8
cliff3
  0
VERTEX
  8
cliff3
 10
287082.642951658
 20
6717418.51770601
  0
VERTEX
  8
cliff3
 10
287080.857048342
 20
6717416.18229399
  0
SEQEND
  0
POLYLINE
 66
1
  8
cliff3
  0
VERTEX
  8
cliff3
 10
287080.681546578
 20
6717417.36597246
  0
VERTEX
  8
cliff3
 10
287077.818453422
 20
6717418.03402754
  0
SEQEND
  0
POLYLINE
 66
1
  8
cliff3
  0
VERTEX
  8
cliff3
 10
287080.241369977
 20
6717416.52566933
  0
VERTEX
  8
cliff3
 10
287077.458630023
 20
6717417.47433067
  0
SEQEND
  0
POLYLINE
 66
1
  8
cliff3
  0
VERTEX
  8
cliff3
 10
287080.968725617
 20
6717416.7388031
  0
VERTEX
  8
cliff3
 10
287078.031274383
 20
6717416.8611969
  0
SEQEND
  0
POLYLINE
 66
1
  8
cliff3
  0
VERTEX
  8
cliff3
 10
287082.87422156
 20
6717418.44311614
  0
VERTEX
  8
cliff3
 10
287081.02577844
 20
6717416.15688386
  0
SEQEND
  0
POLYLINE
 66
1
  8
cliff3
  0
VERTEX
  8
cliff3
 10
287080.586449255
 20
6717417.03772842
  0
VERTEX
  8
cliff3
 10
287077.713550745
 20
6717417.66227158
  0
SEQEND
  0
POLYLINE
 66
1
  8
cliff3
  0
VERTEX
  8
cliff3
 10
287080.136886405
 20
6717416.16271559
  0
VERTEX
  8
cliff3
 10
287077.363113595
 20
6717417.13728441
  0
SEQEND
  0
POLYLINE
 66
1
  8
cliff3
  0
VERTEX
  8
cliff3
 10
287080.87
 20
6717416.45
  0
VERTEX
  8
cliff3
 10
287077.93
 20
6717416.45
  0
SEQEND
  0
POLYLINE
 66
1
  8
cliff3
  0
VERTEX
  8
cliff3
 10
287082.635923317
 20
6717418.19226589
  0
VERTEX
  8
cliff3
 10
287081.064076682
 20
6717415.70773411
  0
SEQEND
  0
POLYLINE
 66
1
  8
cliff3
  0
VERTEX
  8
cliff3
 10
287081.413440203
 20
6717416.09615994
  0
VERTEX
  8
cliff3
 10
287078.586559797
 20
6717416.90384006
  0
SEQEND
  0
POLYLINE
 66
1
  8
cliff3
  0
VERTEX
  8
cliff3
 10
287080.65412909
 20
6717415.96542653
  0
VERTEX
  8
cliff3
 10
287077.74587091
 20
6717415.53457347
  0
SEQEND
  0
POLYLINE
 66
1
  8
cliff3
  0
VERTEX
  8
cliff3
 10
287080.646288768
 20
6717417.58703841
  0
VERTEX
  8
cliff3
 10
287077.753711232
 20
6717418.11296159
  0
SEQEND
  0
POLYLINE
 66
1
  8
cliff3
  0
VERTEX
  8
cliff3
 10
287080.208826955
 20
6717416.73034942
  0
VERTEX
  8
cliff3
 10
287077.391173045
 20
6717417.56965058
  0
SEQEND
  0
POLYLINE
 66
1
  8
cliff3
  0
VERTEX
  8
cliff3
 10
287080.919717498
 20
6717416.92118201
  0
VERTEX
  8
cliff3
 10
287077.980282502
 20
6717416.97881799
  0
SEQEND
  0
POLYLINE
 66
1
  8
cliff3
  0
VERTEX
  8
cliff3
 10
287082.8547442
 20
6717418.56774931
  0
VERTEX
  8
cliff3
 10
287080.9452558
 20
6717416.33225069
  0
SEQEND
  0
POLYLINE
 66
1
  8
cliff3
  0
VERTEX
  8
cliff3
 10
287082.406290619
 20
6717420.09739002
  0
VERTEX
  8
cliff3
 10
287081.493709381
 20
6717417.30260998
  0
SEQEND
  0
POLYLINE
 66
1
  8
cliff3
  0
VERTEX
  8
cliff3
 10
287080.465983599
 20
6717417.44140862
  0
VERTEX
  8
cliff3
 10
287077.534016401
 20
6717417.65859138
  0
SEQEND
  0
POLYLINE
 66
1
  8
cliff3
  0
VERTEX
  8
cliff3
 10
287080.028134898
 20
6717416.50167441
  0
VERTEX
  8
cliff3
 10
287077.171865102
 20
6717417.19832558
  0
SEQEND
  0
POLYLINE
 66
1
  8
cliff3
  0
VERTEX
  8
cliff3
 10
287080.716744182
 20
6717416.74778295
  0
VERTEX
  8
cliff3
 10
287077.783255818
 20
6717416.55221706
  0
SEQEND
  0
POLYLINE
 66
1
  8
cliff3
  0
VERTEX
  8
cliff3
 10
287082.520813262
 20
6717418.36949399
  0
VERTEX
  8
cliff3
 10
287080.879186738
 20
6717415.93050601
  0
SEQEND
  0
POLYLINE
 66
1
  8
cliff3
  0
VERTEX
  8
cliff3
 10
287080.467857142
 20
6717417.97065637
  0
VERTEX
  8
cliff3
 10
287077.532142858
 20
6717418.12934363
  0
SEQEND
  0
POLYLINE
 66
1
  8
cliff3
  0
VERTEX
  8
cliff3
 10
287080.042531212
 20
6717417.06715074
  0
VERTEX
  8
cliff3
 10
287077.157468788
 20
6717417.63284926
  0
SEQEND
  0
POLYLINE
 66
1
  8
cliff3
  0
VERTEX
  8
cliff3
 10
287080.717818091
 20
6717417.23006281
  0
VERTEX
  8
cliff3
 10
287077.782181909
 20
6717417.0699372
  0
SEQEND
  0
POLYLINE
 66
1
  8
cliff3
  0
VERTEX
  8
cliff3
 10
287082.661933814
 20
6717418.76156796
  0
VERTEX
  8
cliff3
 10
287080.738066186
 20
6717416.53843204
  0
SEQEND
  0
POLYLINE
 66
1
  8
cliff3
  0
VERTEX
  8
cliff3
 10
287082.268994161
 20
6717420.27533453
  0
VERTEX
  8
cliff3
 10
287081.231005839
 20
6717417.52466547
  0
SEQEND
  0
POLYLINE
 66
1
  8
cliff3
  0
VERTEX
  8
cliff3
 10
287082.785594849
 20
6717421.7094136
  0
VERTEX
  8
cliff3
 10
287081.114405151
 20
6717419.2905864
  0
SEQEND
  0
POLYLINE
 66
1
  8
cliff3
  0
VERTEX
  8
cliff3
 10
287082.761933814
 20
6717421.26156796
  0
VERTEX
  8
cliff3
 10
287080.838066186
 20
6717419.03843204
  0
SEQEND
  0
POLYLINE
 66
1
  8
cliff3
  0
VERTEX
  8
cliff3
 10
287082.829061369
 20
6717421.00114319
  0
VERTEX
  8
cliff3
 10
287081.670938631
 20
6717418.29885681
  0
SEQEND
  0
POLYLINE
 66
1
  8
cliff3
  0
VERTEX
  8
cliff3
 10
287082.864322012
 20
6717420.55567188
  0
VERTEX
  8
cliff3
 10
287081.335677988
 20
6717418.04432812
  0
SEQEND
  0
POLYLINE
 66
1
  8
cliff3
  0
VERTEX
  8
cliff3
 10
287083.082242957
 20
6717421.22464515
  0
VERTEX
  8
cliff3
 10
287081.617757043
 20
6717418.67535485
  0
SEQEND
  0
POLYLINE
 66
1
  8
cliff3
  0
VERTEX
  8
cliff3
 10
287083.098827827
 20
6717420.76318895
  0
VERTEX
  8
cliff3
 10
287081.301172174
 20
6717418.43681105
  0
SEQEND
  0
POLYLINE
 66
1
  8
cliff3
  0
VERTEX
  8
cliff3
 10
287083.394913659
 20
6717421.18653236
  0
VERTEX
  8
cliff3
 10
287081.805086341
 20
6717418.71346764
  0
SEQEND
  0
POLYLINE
 66
1
  8
cliff3
  0
VERTEX
  8
cliff3
 10
287083.415988745
 20
6717420.70804591
  0
VERTEX
  8
cliff3
 10
287081.484011256
 20
6717418.49195409
  0
SEQEND
  0
POLYLINE
 66
1
  8
cliff3
  0
VERTEX
  8
cliff3
 10
287083.047023545
 20
6717420.94330298
  0
VERTEX
  8
cliff3
 10
287081.852976455
 20
6717418.25669702
  0
SEQEND
  0
POLYLINE
 66
1
  8
cliff3
  0
VERTEX
  8
cliff3
 10
287083.094913659
 20
6717420.48653236
  0
VERTEX
  8
cliff3
 10
287081.505086341
 20
6717418.01346764
  0
SEQEND
  0
POLYLINE
 66
1
  8
cliff3
  0
VERTEX
  8
cliff3
 10
287083.753912632
 20
6717420.79050649
  0
VERTEX
  8
cliff3
 10
287082.346087368
 20
6717418.20949351
  0
SEQEND
  0
POLYLINE
 66
1
  8
cliff3
  0
VERTEX
  8
cliff3
 10
287083.841071068
 20
6717420.27928528
  0
VERTEX
  8
cliff3
 10
287081.958928932
 20
6717418.02071472
  0
SEQEND
  0
POLYLINE
 66
1
  8
cliff3
  0
VERTEX
  8
cliff3
 10
287084.115467695
 20
6717421.05849995
  0
VERTEX
  8
cliff3
 10
287082.184532305
 20
6717418.84150005
  0
SEQEND
  0
POLYLINE
 66
1
  8
cliff3
  0
VERTEX
  8
cliff3
 10
287084.134737446
 20
6717420.53448966
  0
VERTEX
  8
cliff3
 10
287081.865262554
 20
6717418.66551034
  0
SEQEND
  0
POLYLINE
 66
1
  8
cliff3
  0
VERTEX
  8
cliff3
 10
287084.269284628
 20
6717421.59088353
  0
VERTEX
  8
cliff3
 10
287081.930715372
 20
6717419.80911647
  0
SEQEND
  0
POLYLINE
 66
1
  8
cliff3
  0
VERTEX
  8
cliff3
 10
287084.215047724
 20
6717421.09870171
  0
VERTEX
  8
cliff3
 10
287081.684952276
 20
6717419.60129829
  0
SEQEND
  0
POLYLINE
 66
1
  8
cliff3
  0
VERTEX
  8
cliff3
 10
287083.939446968
 20
6717421.43944697
  0
VERTEX
  8
cliff3
 10
287081.860553032
 20
6717419.36055303
  0
SEQEND
  0
POLYLINE
 66
1
  8
cliff3
  0
VERTEX
  8
cliff3
 10
287083.916164709
 20
6717420.94496362
  0
VERTEX
  8
cliff3
 10
287081.583835291
 20
6717419.15503639
  0
SEQEND
  0
POLYLINE
 66
1
  8
cliff3
  0
VERTEX
  8
cliff3
 10
287083.180983688
 20
6717421.0527514
  0
VERTEX
  8
cliff3
 10
287081.819016312
 20
6717418.4472486
  0
SEQEND
  0
POLYLINE
 66
1
  8
cliff3
  0
VERTEX
  8
cliff3
 10
287083.218049692
 20
6717420.58633458
  0
VERTEX
  8
cliff3
 10
287081.481950308
 20
6717418.21366542
  0
SEQEND
  0
POLYLINE
 66
1
  8
cliff3
  0
VERTEX
  8
cliff3
 10
287080.704357929
 20
6717418.58612383
  0
VERTEX
  8
cliff3
 10
287077.795642071
 20
6717419.01387617
  0
SEQEND
  0
POLYLINE
 66
1
  8
cliff3
  0
VERTEX
  8
cliff3
 10
287082.604493641
 20
6717420.93071944
  0
VERTEX
  8
cliff3
 10
287081.595506359
 20
6717418.16928056
  0
SEQEND
  0
POLYLINE
 66
1
  8
cliff3
  0
VERTEX
  8
cliff3
 10
287082.639012236
 20
6717420.49852306
  0
VERTEX
  8
cliff3
 10
287081.260987764
 20
6717417.90147694
  0
SEQEND
  0
POLYLINE
 66
1
  8
cliff3
  0
VERTEX
  8
cliff3
 10
287082.843733401
 20
6717421.5372903
  0
VERTEX
  8
cliff3
 10
287081.256266599
 20
6717419.0627097
  0
SEQEND
  0
POLYLINE
 66
1
  8
cliff3
  0
VERTEX
  8
cliff3
 10
287082.832096995
 20
6717421.08670365
  0
VERTEX
  8
cliff3
 10
287080.967903005
 20
6717418.81329635
  0
SEQEND
  0
POLYLINE
 66
1
  8
cliff3
  0
VERTEX
  8
cliff3
 10
287084.473508481
 20
6717421.14796028
  0
VERTEX
  8
cliff3
 10
287082.226491519
 20
6717419.25203972
  0
SEQEND
  0
POLYLINE
 66
1
  8
cliff3
  0
VERTEX
  8
cliff3
 10
287084.451937726
 20
6717420.62042322
  0
VERTEX
  8
cliff3
 10
287081.948062274
 20
6717419.07957678
  0
SEQEND
  0
POLYLINE
 66
1
  8
cliff3
  0
VERTEX
  8
cliff3
 10
287085.735290645
 20
6717420.82352481
  0
VERTEX
  8
cliff3
 10
287083.964709355
 20
6717418.47647519
  0
SEQEND
  0
POLYLINE
 66
1
  8
cliff3
  0
VERTEX
  8
cliff3
 10
287084.760514601
 20
6717421.35630876
  0
VERTEX
  8
cliff3
 10
287082.239485399
 20
6717419.84369124
  0
SEQEND
  0
POLYLINE
 66
1
  8
cliff3
  0
VERTEX
  8
cliff3
 10
287084.692122805
 20
6717420.84967189
  0
VERTEX
  8
cliff3
 10
287082.007877195
 20
6717419.65032811
  0
SEQEND
  0
POLYLINE
 66
1
  8
cliff3
  0
VERTEX
  8
cliff3
 10
287085.330859552
 20
6717292.16228277
  0
VERTEX
  8
cliff3
 10
287083.469140448
 20
6717294.43771723
  0
SEQEND
  0
POLYLINE
 66
1
  8
cliff3
  0
VERTEX
  8
cliff3
 10
287086.311355769
 20
6717292.29537358
  0
VERTEX
  8
cliff3
 10
287083.588644231
 20
6717293.40462642
  0
SEQEND
  0
POLYLINE
 66
1
  8
cliff3
  0
VERTEX
  8
cliff3
 10
287086.833273092
 20
6717292.55003908
  0
VERTEX
  8
cliff3
 10
287084.366726908
 20
6717294.14996092
  0
SEQEND
  0
POLYLINE
 66
1
  8
cliff3
  0
VERTEX
  8
cliff3
 10
287087.174921396
 20
6717312.30745004
  0
VERTEX
  8
cliff3
 10
287085.325078604
 20
6717314.59254996
  0
SEQEND
  0
POLYLINE
 66
1
  8
cliff3
  0
VERTEX
  8
cliff3
 10
287087.598691698
 20
6717312.42338516
  0
VERTEX
  8
cliff3
 10
287085.401308302
 20
6717314.37661484
  0
SEQEND
  0
POLYLINE
 66
1
  8
cliff3
  0
VERTEX
  8
cliff3
 10
287085.617838994
 20
6717313.23054484
  0
VERTEX
  8
cliff3
 10
287086.382161006
 20
6717316.06945517
  0
SEQEND
  0
POLYLINE
 66
1
  8
cliff3
  0
VERTEX
  8
cliff3
 10
287087.19692674
 20
6717312.00570748
  0
VERTEX
  8
cliff3
 10
287085.80307326
 20
6717314.59429252
  0
SEQEND
  0
POLYLINE
 66
1
  8
cliff3
  0
VERTEX
  8
cliff3
 10
287087.604420145
 20
6717312.0538118
  0
VERTEX
  8
cliff3
 10
287085.895579855
 20
6717314.4461882
  0
SEQEND
  0
POLYLINE
 66
1
  8
cliff3
  0
VERTEX
  8
cliff3
 10
287087.093315204
 20
6717311.91638341
  0
VERTEX
  8
cliff3
 10
287085.106684796
 20
6717314.08361659
  0
SEQEND
  0
POLYLINE
 66
1
  8
cliff3
  0
VERTEX
  8
cliff3
 10
287087.104420145
 20
6717312.1538118
  0
VERTEX
  8
cliff3
 10
287085.395579855
 20
6717314.5461882
  0
SEQEND
  0
POLYLINE
 66
1
  8
cliff3
  0
VERTEX
  8
cliff3
 10
287087.539446968
 20
6717312.26055303
  0
VERTEX
  8
cliff3
 10
287085.460553032
 20
6717314.33944697
  0
SEQEND
  0
POLYLINE
 66
1
  8
cliff3
  0
VERTEX
  8
cliff3
 10
287085.519147471
 20
6717313.16087047
  0
VERTEX
  8
cliff3
 10
287086.480852529
 20
6717315.93912953
  0
SEQEND
  0
POLYLINE
 66
1
  8
cliff3
  0
VERTEX
  8
cliff3
 10
287086.019147471
 20
6717316.46087047
  0
VERTEX
  8
cliff3
 10
287086.980852529
 20
6717319.23912953
  0
SEQEND
  0
POLYLINE
 66
1
  8
cliff3
  0
VERTEX
  8
cliff3
 10
287085.933087547
 20
6717313.63603699
  0
VERTEX
  8
cliff3
 10
287085.666912453
 20
6717316.56396301
  0
SEQEND
  0
POLYLINE
 66
1
  8
cliff3
  0
VERTEX
  8
cliff3
 10
287086.2
 20
6717313.53
  0
VERTEX
  8
cliff3
 10
287086.2
 20
6717316.47
  0
SEQEND
  0
POLYLINE
 66
1
  8
cliff3
  0
VERTEX
  8
cliff3
 10
287090.094564448
 20
6717308.53514518
  0
VERTEX
  8
cliff3
 10
287087.305435552
 20
6717309.46485482
  0
SEQEND
  0
POLYLINE
 66
1
  8
cliff3
  0
VERTEX
  8
cliff3
 10
287086.748972801
 20
6717311.18081599
  0
VERTEX
  8
cliff3
 10
287086.651027199
 20
6717314.11918401
  0
SEQEND
  0
POLYLINE
 66
1
  8
cliff3
  0
VERTEX
  8
cliff3
 10
287087.067225477
 20
6717311.13468154
  0
VERTEX
  8
cliff3
 10
287086.832774523
 20
6717314.06531846
  0
SEQEND
  0
POLYLINE
 66
1
  8
cliff3
  0
VERTEX
  8
cliff3
 10
287088.056527369
 20
6717311.17389052
  0
VERTEX
  8
cliff3
 10
287087.343472631
 20
6717314.02610947
  0
SEQEND
  0
POLYLINE
 66
1
  8
cliff3
  0
VERTEX
  8
cliff3
 10
287089.42375486
 20
6717342.56786107
  0
VERTEX
  8
cliff3
 10
287087.67624514
 20
6717344.93213893
  0
SEQEND
  0
POLYLINE
 66
1
  8
cliff3
  0
VERTEX
  8
cliff3
 10
287089.862529821
 20
6717342.53917879
  0
VERTEX
  8
cliff3
 10
287087.637470179
 20
6717344.46082121
  0
SEQEND
  0
POLYLINE
 66
1
  8
cliff3
  0
VERTEX
  8
cliff3
 10
287089.905393459
 20
6717342.77758031
  0
VERTEX
  8
cliff3
 10
287087.894606541
 20
6717344.92241969
  0
SEQEND
  0
POLYLINE
 66
1
  8
cliff3
  0
VERTEX
  8
cliff3
 10
287090.664860736
 20
6717343.05405571
  0
VERTEX
  8
cliff3
 10
287087.935139264
 20
6717344.14594429
  0
SEQEND
  0
POLYLINE
 66
1
  8
cliff3
  0
VERTEX
  8
cliff3
 10
287090.893549477
 20
6717343.02239433
  0
VERTEX
  8
cliff3
 10
287088.006450523
 20
6717343.57760567
  0
SEQEND
  0
POLYLINE
 66
1
  8
cliff3
  0
VERTEX
  8
cliff3
 10
287091.450800897
 20
6717343.94570938
  0
VERTEX
  8
cliff3
 10
287088.649199103
 20
6717343.05429062
  0
SEQEND
  0
POLYLINE
 66
1
  8
cliff3
  0
VERTEX
  8
cliff3
 10
287091.590506492
 20
6717344.20391263
  0
VERTEX
  8
cliff3
 10
287089.009493508
 20
6717342.79608737
  0
SEQEND
  0
POLYLINE
 66
1
  8
cliff3
  0
VERTEX
  8
cliff3
 10
287091.57
 20
6717343.05
  0
VERTEX
  8
cliff3
 10
287088.63
 20
6717343.05
  0
SEQEND
  0
POLYLINE
 66
1
  8
cliff3
  0
VERTEX
  8
cliff3
 10
287091.026403891
 20
6717342.68384854
  0
VERTEX
  8
cliff3
 10
287088.273596109
 20
6717343.71615146
  0
SEQEND
  0
POLYLINE
 66
1
  8
cliff3
  0
VERTEX
  8
cliff3
 10
287091.864860736
 20
6717343.94594429
  0
VERTEX
  8
cliff3
 10
287089.135139264
 20
6717342.85405571
  0
SEQEND
  0
POLYLINE
 66
1
  8
cliff3
  0
VERTEX
  8
cliff3
 10
287089.329727373
 20
6717343.32667583
  0
VERTEX
  8
cliff3
 10
287086.770272627
 20
6717344.77332417
  0
SEQEND
  0
POLYLINE
 66
1
  8
cliff3
  0
VERTEX
  8
cliff3
 10
287089.649481985
 20
6717343.35016651
  0
VERTEX
  8
cliff3
 10
287086.850518015
 20
6717344.2498335
  0
SEQEND
  0
POLYLINE
 66
1
  8
cliff3
  0
VERTEX
  8
cliff3
 10
287089.813440203
 20
6717343.74615994
  0
VERTEX
  8
cliff3
 10
287086.986559797
 20
6717344.55384006
  0
SEQEND
  0
POLYLINE
 66
1
  8
cliff3
  0
VERTEX
  8
cliff3
 10
287090.265670094
 20
6717344.01274385
  0
VERTEX
  8
cliff3
 10
287087.334329906
 20
6717343.78725615
  0
SEQEND
  0
POLYLINE
 66
1
  8
cliff3
  0
VERTEX
  8
cliff3
 10
287095.239129528
 20
6717420.88085253
  0
VERTEX
  8
cliff3
 10
287092.460870472
 20
6717419.91914747
  0
SEQEND
  0
POLYLINE
 66
1
  8
cliff3
  0
VERTEX
  8
cliff3
 10
287093.00823693
 20
6717423.13559379
  0
VERTEX
  8
cliff3
 10
287090.09176307
 20
6717422.76440621
  0
SEQEND
  0
POLYLINE
 66
1
  8
cliff3
  0
VERTEX
  8
cliff3
 10
287093.613738791
 20
6717422.76446863
  0
VERTEX
  8
cliff3
 10
287090.686261209
 20
6717423.03553137
  0
SEQEND
  0
POLYLINE
 66
1
  8
cliff3
  0
VERTEX
  8
cliff3
 10
287095.218885777
 20
6717423.69217847
  0
VERTEX
  8
cliff3
 10
287092.681114223
 20
6717422.20782153
  0
SEQEND
  0
POLYLINE
 66
1
  8
cliff3
  0
VERTEX
  8
cliff3
 10
287095.316431637
 20
6717424.66174284
  0
VERTEX
  8
cliff3
 10
287093.183568363
 20
6717422.63825717
  0
SEQEND
  0
POLYLINE
 66
1
  8
cliff3
  0
VERTEX
  8
cliff3
 10
287095.297878456
 20
6717423.72698092
  0
VERTEX
  8
cliff3
 10
287092.802121544
 20
6717422.17301907
  0
SEQEND
  0
POLYLINE
 66
1
  8
cliff3
  0
VERTEX
  8
cliff3
 10
287095.049168237
 20
6717423.73779495
  0
VERTEX
  8
cliff3
 10
287092.450831763
 20
6717422.36220505
  0
SEQEND
  0
POLYLINE
 66
1
  8
cliff3
  0
VERTEX
  8
cliff3
 10
287093.892435766
 20
6717422.7166644
  0
VERTEX
  8
cliff3
 10
287091.007564234
 20
6717423.2833356
  0
SEQEND
  0
POLYLINE
 66
1
  8
cliff3
  0
VERTEX
  8
cliff3
 10
287095.588238722
 20
6717423.65829033
  0
VERTEX
  8
cliff3
 10
287092.911761278
 20
6717422.44170967
  0
SEQEND
  0
POLYLINE
 66
1
  8
cliff3
  0
VERTEX
  8
cliff3
 10
287095.722559217
 20
6717424.63656916
  0
VERTEX
  8
cliff3
 10
287093.377440783
 20
6717422.86343084
  0
SEQEND
  0
POLYLINE
 66
1
  8
cliff3
  0
VERTEX
  8
cliff3
 10
287096.08686495
 20
6717424.06732439
  0
VERTEX
  8
cliff3
 10
287093.71313505
 20
6717422.33267561
  0
SEQEND
  0
POLYLINE
 66
1
  8
cliff3
  0
VERTEX
  8
cliff3
 10
287095.669571388
 20
6717423.69778959
  0
VERTEX
  8
cliff3
 10
287093.030428612
 20
6717422.40221041
  0
SEQEND
  0
POLYLINE
 66
1
  8
cliff3
  0
VERTEX
  8
cliff3
 10
287095.416631806
 20
6717423.69149562
  0
VERTEX
  8
cliff3
 10
287092.683368194
 20
6717422.60850438
  0
SEQEND
  0
POLYLINE
 66
1
  8
cliff3
  0
VERTEX
  8
cliff3
 10
287096.021213258
 20
6717423.02978694
  0
VERTEX
  8
cliff3
 10
287093.278786742
 20
6717421.97021306
  0
SEQEND
  0
POLYLINE
 66
1
  8
cliff3
  0
VERTEX
  8
cliff3
 10
287096.116601351
 20
6717424.09439437
  0
VERTEX
  8
cliff3
 10
287093.783398649
 20
6717422.30560563
  0
SEQEND
  0
POLYLINE
 66
1
  8
cliff3
  0
VERTEX
  8
cliff3
 10
287095.854270259
 20
6717423.03465508
  0
VERTEX
  8
cliff3
 10
287093.045729741
 20
6717422.16534492
  0
SEQEND
  0
POLYLINE
 66
1
  8
cliff3
  0
VERTEX
  8
cliff3
 10
287096.022726738
 20
6717422.59132205
  0
VERTEX
  8
cliff3
 10
287093.377273262
 20
6717421.30867794
  0
SEQEND
  0
POLYLINE
 66
1
  8
cliff3
  0
VERTEX
  8
cliff3
 10
287095.960821209
 20
6717423.76252982
  0
VERTEX
  8
cliff3
 10
287094.039178791
 20
6717421.53747018
  0
SEQEND
  0
POLYLINE
 66
1
  8
cliff3
  0
VERTEX
  8
cliff3
 10
287096.090506492
 20
6717422.65391263
  0
VERTEX
  8
cliff3
 10
287093.509493508
 20
6717421.24608737
  0
SEQEND
  0
POLYLINE
 66
1
  8
cliff3
  0
VERTEX
  8
cliff3
 10
287095.870875104
 20
6717422.58066133
  0
VERTEX
  8
cliff3
 10
287093.129124896
 20
6717421.51933867
  0
SEQEND
  0
POLYLINE
 66
1
  8
cliff3
  0
VERTEX
  8
cliff3
 10
287095.588763502
 20
6717422.89143224
  0
VERTEX
  8
cliff3
 10
287093.111236498
 20
6717421.30856776
  0
SEQEND
  0
POLYLINE
 66
1
  8
cliff3
  0
VERTEX
  8
cliff3
 10
287095.65741385
 20
6717422.93848184
  0
VERTEX
  8
cliff3
 10
287093.24258615
 20
6717421.26151816
  0
SEQEND
  0
POLYLINE
 66
1
  8
cliff3
  0
VERTEX
  8
cliff3
 10
287095.433226919
 20
6717422.9170974
  0
VERTEX
  8
cliff3
 10
287092.866773081
 20
6717421.4829026
  0
SEQEND
  0
POLYLINE
 66
1
  8
cliff3
  0
VERTEX
  8
cliff3
 10
287093.695676187
 20
6717421.83369123
  0
VERTEX
  8
cliff3
 10
287090.804323813
 20
6717422.36630877
  0
SEQEND
  0
POLYLINE
 66
1
  8
cliff3
  0
VERTEX
  8
cliff3
 10
287095.206972195
 20
6717423.05681605
  0
VERTEX
  8
cliff3
 10
287092.893027805
 20
6717421.24318396
  0
SEQEND
  0
POLYLINE
 66
1
  8
cliff3
  0
VERTEX
  8
cliff3
 10
287095.046188203
 20
6717423.10442015
  0
VERTEX
  8
cliff3
 10
287092.653811797
 20
6717421.39557986
  0
SEQEND
  0
POLYLINE
 66
1
  8
cliff3
  0
VERTEX
  8
cliff3
 10
287095.364807971
 20
6717423.25740398
  0
VERTEX
  8
cliff3
 10
287092.735192029
 20
6717421.94259601
  0
SEQEND
  0
POLYLINE
 66
1
  8
cliff3
  0
VERTEX
  8
cliff3
 10
287095.868530602
 20
6717423.38667867
  0
VERTEX
  8
cliff3
 10
287093.131469398
 20
6717422.31332133
  0
SEQEND
  0
POLYLINE
 66
1
  8
cliff3
  0
VERTEX
  8
cliff3
 10
287096.002741794
 20
6717424.39516991
  0
VERTEX
  8
cliff3
 10
287093.597258206
 20
6717422.70483009
  0
SEQEND
  0
POLYLINE
 66
1
  8
cliff3
  0
VERTEX
  8
cliff3
 10
287095.949770483
 20
6717423.43225393
  0
VERTEX
  8
cliff3
 10
287093.250229517
 20
6717422.26774607
  0
SEQEND
  0
POLYLINE
 66
1
  8
cliff3
  0
VERTEX
  8
cliff3
 10
287095.697390021
 20
6717423.40629062
  0
VERTEX
  8
cliff3
 10
287092.902609979
 20
6717422.49370938
  0
SEQEND
  0
POLYLINE
 66
1
  8
cliff3
  0
VERTEX
  8
cliff3
 10
287093.801375646
 20
6717422.7667432
  0
VERTEX
  8
cliff3
 10
287090.898624354
 20
6717423.2332568
  0
SEQEND
  0
POLYLINE
 66
1
  8
cliff3
  0
VERTEX
  8
cliff3
 10
287095.469571388
 20
6717423.69778959
  0
VERTEX
  8
cliff3
 10
287092.830428612
 20
6717422.40221041
  0
SEQEND
  0
POLYLINE
 66
1
  8
cliff3
  0
VERTEX
  8
cliff3
 10
287095.595147177
 20
6717424.67170383
  0
VERTEX
  8
cliff3
 10
287093.304852823
 20
6717422.82829617
  0
SEQEND
  0
POLYLINE
 66
1
  8
cliff3
  0
VERTEX
  8
cliff3
 10
287095.965157264
 20
6717424.09627482
  0
VERTEX
  8
cliff3
 10
287093.634842736
 20
6717422.30372518
  0
SEQEND
  0
POLYLINE
 66
1
  8
cliff3
  0
VERTEX
  8
cliff3
 10
287095.550316578
 20
6717423.73562147
  0
VERTEX
  8
cliff3
 10
287092.949683422
 20
6717422.36437853
  0
SEQEND
  0
POLYLINE
 66
1
  8
cliff3
  0
VERTEX
  8
cliff3
 10
287095.298497166
 20
6717423.73519688
  0
VERTEX
  8
cliff3
 10
287092.601502834
 20
6717422.56480312
  0
SEQEND
  0
POLYLINE
 66
1
  8
cliff3
  0
VERTEX
  8
cliff3
 10
287093.61240619
 20
6717422.50077488
  0
VERTEX
  8
cliff3
 10
287090.68759381
 20
6717422.79922512
  0
SEQEND
  0
POLYLINE
 66
1
  8
cliff3
  0
VERTEX
  8
cliff3
 10
287095.184857885
 20
6717423.49751238
  0
VERTEX
  8
cliff3
 10
287092.715142115
 20
6717421.90248762
  0
SEQEND
  0
POLYLINE
 66
1
  8
cliff3
  0
VERTEX
  8
cliff3
 10
287095.244639175
 20
6717424.48240146
  0
VERTEX
  8
cliff3
 10
287093.255360825
 20
6717422.31759855
  0
SEQEND
  0
POLYLINE
 66
1
  8
cliff3
  0
VERTEX
  8
cliff3
 10
287095.261341629
 20
6717423.53279737
  0
VERTEX
  8
cliff3
 10
287092.838658371
 20
6717421.86720263
  0
SEQEND
  0
POLYLINE
 66
1
  8
cliff3
  0
VERTEX
  8
cliff3
 10
287095.017751202
 20
6717423.54411484
  0
VERTEX
  8
cliff3
 10
287092.482248798
 20
6717422.05588516
  0
SEQEND
  0
POLYLINE
 66
1
  8
cliff3
  0
VERTEX
  8
cliff3
 10
287093.41958351
 20
6717422.26500992
  0
VERTEX
  8
cliff3
 10
287090.48041649
 20
6717422.33499008
  0
SEQEND
  0
POLYLINE
 66
1
  8
cliff3
  0
VERTEX
  8
cliff3
 10
287094.868029818
 20
6717423.3044157
  0
VERTEX
  8
cliff3
 10
287092.631970182
 20
6717421.3955843
  0
SEQEND
  0
POLYLINE
 66
1
  8
cliff3
  0
VERTEX
  8
cliff3
 10
287094.941317883
 20
6717423.33484785
  0
VERTEX
  8
cliff3
 10
287092.758682117
 20
6717421.36515215
  0
SEQEND
  0
POLYLINE
 66
1
  8
cliff3
  0
VERTEX
  8
cliff3
 10
287094.700750185
 20
6717423.36469886
  0
VERTEX
  8
cliff3
 10
287092.399249815
 20
6717421.53530114
  0
SEQEND
  0
POLYLINE
 66
1
  8
cliff3
  0
VERTEX
  8
cliff3
 10
287093.517968209
 20
6717422.97273852
  0
VERTEX
  8
cliff3
 10
287090.582031791
 20
6717423.12726149
  0
SEQEND
  0
POLYLINE
 66
1
  8
cliff3
  0
VERTEX
  8
cliff3
 10
287095.116461538
 20
6717423.84630769
  0
VERTEX
  8
cliff3
 10
287092.583538461
 20
6717422.35369231
  0
SEQEND
  0
POLYLINE
 66
1
  8
cliff3
  0
VERTEX
  8
cliff3
 10
287095.227206433
 20
6717424.80026312
  0
VERTEX
  8
cliff3
 10
287093.072793567
 20
6717422.79973688
  0
SEQEND
  0
POLYLINE
 66
1
  8
cliff3
  0
VERTEX
  8
cliff3
 10
287095.196557507
 20
6717423.87909844
  0
VERTEX
  8
cliff3
 10
287092.703442493
 20
6717422.32090156
  0
SEQEND
  0
POLYLINE
 66
1
  8
cliff3
  0
VERTEX
  8
cliff3
 10
287094.945061811
 20
6717423.89549616
  0
VERTEX
  8
cliff3
 10
287092.354938189
 20
6717422.50450384
  0
SEQEND
  0
POLYLINE
 66
1
  8
cliff3
  0
VERTEX
  8
cliff3
 10
287096.217559437
 20
6717423.23913396
  0
VERTEX
  8
cliff3
 10
287093.382440563
 20
6717422.46086604
  0
SEQEND
  0
POLYLINE
 66
1
  8
cliff3
  0
VERTEX
  8
cliff3
 10
287096.393168575
 20
6717424.24901004
  0
VERTEX
  8
cliff3
 10
287093.806831425
 20
6717422.85098996
  0
SEQEND
  0
POLYLINE
 66
1
  8
cliff3
  0
VERTEX
  8
cliff3
 10
287096.302595337
 20
6717423.29002991
  0
VERTEX
  8
cliff3
 10
287093.497404663
 20
6717422.40997009
  0
SEQEND
  0
POLYLINE
 66
1
  8
cliff3
  0
VERTEX
  8
cliff3
 10
287096.040311966
 20
6717423.24394122
  0
VERTEX
  8
cliff3
 10
287093.159688034
 20
6717422.65605878
  0
SEQEND
  0
POLYLINE
 66
1
  8
cliff3
  0
VERTEX
  8
cliff3
 10
287096.722018041
 20
6717424.17769925
  0
VERTEX
  8
cliff3
 10
287093.977981959
 20
6717423.12230075
  0
SEQEND
  0
POLYLINE
 66
1
  8
cliff3
  0
VERTEX
  8
cliff3
 10
287096.312985932
 20
6717423.19342999
  0
VERTEX
  8
cliff3
 10
287093.387014068
 20
6717422.90657001
  0
SEQEND
  0
POLYLINE
 66
1
  8
cliff3
  0
VERTEX
  8
cliff3
 10
287096.32239739
 20
6717422.97106019
  0
VERTEX
  8
cliff3
 10
287093.47760261
 20
6717422.22893981
  0
SEQEND
  0
POLYLINE
 66
1
  8
cliff3
  0
VERTEX
  8
cliff3
 10
287096.48121604
 20
6717424.02068402
  0
VERTEX
  8
cliff3
 10
287093.91878396
 20
6717422.57931598
  0
SEQEND
  0
POLYLINE
 66
1
  8
cliff3
  0
VERTEX
  8
cliff3
 10
287096.406310604
 20
6717423.02800757
  0
VERTEX
  8
cliff3
 10
287093.593689396
 20
6717422.17199242
  0
SEQEND
  0
POLYLINE
 66
1
  8
cliff3
  0
VERTEX
  8
cliff3
 10
287096.146288768
 20
6717422.96296159
  0
VERTEX
  8
cliff3
 10
287093.253711232
 20
6717422.43703841
  0
SEQEND
  0
POLYLINE
 66
1
  8
cliff3
  0
VERTEX
  8
cliff3
 10
287096.304995143
 20
6717422.6823062
  0
VERTEX
  8
cliff3
 10
287093.495004857
 20
6717421.8176938
  0
SEQEND
  0
POLYLINE
 66
1
  8
cliff3
  0
VERTEX
  8
cliff3
 10
287096.392955482
 20
6717423.80892795
  0
VERTEX
  8
cliff3
 10
287094.007044518
 20
6717422.09107205
  0
SEQEND
  0
POLYLINE
 66
1
  8
cliff3
  0
VERTEX
  8
cliff3
 10
287096.383556166
 20
6717422.74666119
  0
VERTEX
  8
cliff3
 10
287093.616443834
 20
6717421.75333881
  0
SEQEND
  0
POLYLINE
 66
1
  8
cliff3
  0
VERTEX
  8
cliff3
 10
287096.136798823
 20
6717422.6606592
  0
VERTEX
  8
cliff3
 10
287093.263201177
 20
6717422.0393408
  0
SEQEND
  0
POLYLINE
 66
1
  8
cliff3
  0
VERTEX
  8
cliff3
 10
287096.158004639
 20
6717423.22240139
  0
VERTEX
  8
cliff3
 10
287093.341995361
 20
6717422.37759861
  0
SEQEND
  0
POLYLINE
 66
1
  8
cliff3
  0
VERTEX
  8
cliff3
 10
287096.319754984
 20
6717424.24069041
  0
VERTEX
  8
cliff3
 10
287093.780245016
 20
6717422.75930959
  0
SEQEND
  0
POLYLINE
 66
1
  8
cliff3
  0
VERTEX
  8
cliff3
 10
287095.982856508
 20
6717423.22836295
  0
VERTEX
  8
cliff3
 10
287093.117143492
 20
6717422.57163705
  0
SEQEND
  0
POLYLINE
 66
1
  8
cliff3
  0
VERTEX
  8
cliff3
 10
287098.891432237
 20
6717427.6887635
  0
VERTEX
  8
cliff3
 10
287097.308567763
 20
6717425.2112365
  0
SEQEND
  0
POLYLINE
 66
1
  8
cliff3
  0
VERTEX
  8
cliff3
 10
287099.549685491
 20
6717427.34955599
  0
VERTEX
  8
cliff3
 10
287097.850314509
 20
6717424.95044401
  0
SEQEND
  0
POLYLINE
 66
1
  8
cliff3
  0
VERTEX
  8
cliff3
 10
287100.029285281
 20
6717427.44107107
  0
VERTEX
  8
cliff3
 10
287097.770714719
 20
6717425.55892893
  0
SEQEND
  0
POLYLINE
 66
1
  8
cliff3
  0
VERTEX
  8
cliff3
 10
287099.479043181
 20
6717427.64652836
  0
VERTEX
  8
cliff3
 10
287097.520956819
 20
6717425.45347164
  0
SEQEND
  0
POLYLINE
 66
1
  8
cliff3
  0
VERTEX
  8
cliff3
 10
287160.123113933
 20
6717415.26540929
  0
VERTEX
  8
cliff3
 10
287157.676886067
 20
6717413.63459071
  0
SEQEND
  0
POLYLINE
 66
1
  8
cliff3
  0
VERTEX
  8
cliff3
 10
287159.889101217
 20
6717414.59981275
  0
VERTEX
  8
cliff3
 10
287157.010898783
 20
6717414.00018725
  0
SEQEND
  0
POLYLINE
 66
1
  8
cliff3
  0
VERTEX
  8
cliff3
 10
287160.558004639
 20
6717415.32240139
  0
VERTEX
  8
cliff3
 10
287157.741995361
 20
6717414.47759861
  0
SEQEND
  0
POLYLINE
 66
1
  8
cliff3
  0
VERTEX
  8
cliff3
 10
287038.039446968
 20
6717409.96055303
  0
VERTEX
  8
cliff3
 10
287035.960553032
 20
6717412.03944697
  0
SEQEND
  0
POLYLINE
 66
1
  8
cliff3
  0
VERTEX
  8
cliff3
 10
287037.657403985
 20
6717410.68519203
  0
VERTEX
  8
cliff3
 10
287036.342596015
 20
6717413.31480797
  0
SEQEND
  0
POLYLINE
 66
1
  8
cliff3
  0
VERTEX
  8
cliff3
 10
287038.039446968
 20
6717411.96055303
  0
VERTEX
  8
cliff3
 10
287035.960553032
 20
6717414.03944697
  0
SEQEND
  0
ENDSEC
  0
EOF
